Your One-Stop Source For
Music Lyrics
Bass and Guitar Tabs
and More...
Music Lyrics Bass and Guitar Tabs

 

The Tabs Are Below

Learn To Read Tab
Chords Handbook
Corrections & Additions
Get Official Tab
Rancid tabs @ 911Tabs

 

Rancid

Olympia, WA

Intro and Ending: (Repeat 1st half 2x,then play 2nd half,repeat all 1x)

G:--------------------------------*-------------

D:----------------5-5-5-----------*-------------

A:3-3-3-3-5-5-5-5-------3-3-3-2-3-*3---2-------5

E:--------------------------------*--------5----

Verse: (Repeat 1x, play 1st ending and then second)

A:--------------------------------3-3-3-3-3-3-3-3-3-3-3-3-3-2-3-5

E:3-3-3-3-3-3-3-3-3-3-3-3-3-3-3-3--------------------------------

Verse 1st ending:

A:--------------------------2-3-4-5-5-5-5-5-5-5-5-5-5-5-5-5-3-2--

E:3-3-3-3-3-3-3-3-3-3-3-3-3-------------------------------------5

Verse 2nd ending:

A:----------2-3-4-5-5-5-5-5-3-2---------------------5-5-5-5-5-5-5

E:3-3-3-3-3---------------------5-3-3-3-3-3-3-3-3----------------

Chorus: (Repeat 1x, play 1st ending and then second)

G:---------------------------------------------------------------

D:--------------------2-2-3-3-4-4-5-5-3-3-2-2--------------------

A:3-3-2-2-3-3-4-4-5-5-------------------------5-5-3-3-2-2-----2--

E:--------------------------------------------------------5-5---5

Chorus 1st ending:

G:--------------------------------------------------------------

D:--------------------------------------------2-----------------

A:3-3-2-2-3-3-4-4-5-5-3-3-2-2---------2-2-5-5--5-3-3-2-2-----2--

E:----------------------------5-5-3-3--------------------5-5---5

Chorus 2nd ending:

G:---------------------------------------------------------------

D:---------------------------------------------------------------

A:3-3-3-3-3-3-3-3-----------2-3-4-5-5-5-5-5-5-5-5-5-5-5-5-5-3-2--

E:----------------3-3-3-3-3-------------------------------------5

Instrumental:

A:----333-----333---------5-5-5-5-----333-----333---------5-5-5-5-

E:333-----333-----1-1-1-1---------333-----333-----1-1-1-1---------

Instrumental continued:

A:--------5-5-5-5-5-5-5-5---------------------5-5-5-5-5-5-5-5-5-5-5-5

E:1--1--1-----------------1--1--1--1--1--1--1------------------------

 

 

 

Figured out and written by Fidget (bassist of Half Moon)

 

 

 

Return to my to my Rancid tabs page

The Tablature is Copyright its respective owners.

Sign Up For My Newsletter
Subscribe | Unsubscribe

Site Map | Disclaimer | Privacy Policy | Media Kit | Submissions/Corrections

Website © 2000-2014 mattsmusicpage.com. All rights reserved.

Legal & DMCA: Matt's Music Page has been providing lyrics and tabs in a legal way, paying royalties each year to a few organizations. Then, all lyrics and tabs were removed from the site. Now, there's a new owner to the site, which purchased it August 26, 2014, and he is in negotiation to obtain licensing from BMI at the moment. If you have a specific DMCA request -- please do not hesitate to contact me via the contact button on top. I will do my very best to keep this site fully legal.

Get our toolbar!

 

Starbucks You Are Here Coffee Mug/Cup KENTUCKY - Horses, Banjo, Blue, White
$19.99
Starbucks You Are Here Coffee Mug/Cup KENTUCKY - Horses, Banjo, Blue, White picture


KNOWLES ROCKWELL HERITAGE "THE BANJO PLAYER" FIRST EDITION 1989 PLATE COA
$5.99
KNOWLES ROCKWELL HERITAGE


Vintage Postcard 1981 Disney World Banjo Kings Main Street USA 1981 Postmark
$4.99
 Vintage Postcard 1981 Disney World Banjo Kings Main Street USA 1981 Postmark picture


Banjo Barometer With Thermometer Hygrometer 490mm
$84.76
Banjo Barometer With Thermometer Hygrometer 490mm picture


ANTIQUE JAPANESE NIPPON FIGURINE SET OF 3 WOMEN GEISHA PLAYING DRUM BANJO FAN
$24.0
ANTIQUE JAPANESE NIPPON FIGURINE SET OF 3 WOMEN GEISHA PLAYING DRUM BANJO FAN picture