Your One-Stop Source For
Music Lyrics
Bass and Guitar Tabs
and More...
Music Lyrics Bass and Guitar Tabs

 

The Tabs Are Below

Learn To Read Tab
Chords Handbook
Corrections & Additions
Get Official Tab
Rancid tabs @ 911Tabs

 

Song: New Dress

Band: Rancid

Album: Life Won't Wait

Tabbed by: Ryan Christo

 

G:-----------6-------------6-------------6-------------6---

D:-----666-9---9-----666-9---9-----666-9---9-----666-9---9-

A:-7-7-----------7-7-----------7-7-----------7-7-----------

E:---------------------------------------------------------

 

G:---------------------------------------------------------

D:-----------6-------------6-------------6-------------6---

A:-----666-9---9-----666-9---9-----666-9---9-----666-9---9-

E:-7-7-----------7-7-----------7-7-----------7-7-----------

 

G:-----------6-------------6-------------6-------------6---

D:-----666-9---9-----666-9---9-----666-9---9-----666-9---9-

A:-7-7-----------7-7-----------7-7-----------7-7-----------

E:---------------------------------------------------------

 

G:---------------------------------------------------------

D:-----------6-------------6-------------6-------------6---

A:-----666-9---9-----666-9---9-----666-9---9-----666-9---9-

E:-7-7-----------7-7-----------7-7-----------7-7-----------

 

G:----------------------------------------------7-----

D:--------------------------------6-5-4-----777---7-7-

A:------4---4--------3-4-5-5-7--7-------5-5-----------

E:-5--5---5---5-4--4----------------------------------

 

G:------------------------------------------------

D:------------------------------------------------

A:-9-99-7-77-6-66-4---4----------------------6-66-

E:------------------5---5-7-77-9-99-10-10|10------

 

G:----------------------------------------------7-----

D:--------------------------------6-5-4-----777---7-7-

A:------4---4-5------3-4-5-5-7--7-------5-5-----------

E:-5--5---5-----4--4----------------------------------

 

G:------------------------------------------------

D:------------------------------------------------

A:-9-99-7-77-6-66-4---4----------------------6-66-

E:------------------5---5-7-77-9-99-10-10|10------

 

G:-----------6-------------6-------------6-------------6---

D:-----666-9---9-----666-9---9-----666-9---9-----666-9---9-

A:-7-7-----------7-7-----------7-7-----------7-7-----------

E:---------------------------------------------------------

 

G:---------------------------------------------------------

D:-----------6-------------6-------------6-------------6---

A:-----666-9---9-----666-9---9-----666-9---9-----666-9---9-

E:-7-7-----------7-7-----------7-7-----------7-7-----------

 

G:-----------6-------------6-------------6-------------6---

D:-----666-9---9-----666-9---9-----666-9---9-----666-9---9-

A:-7-7-----------7-7-----------7-7-----------7-7-----------

E:---------------------------------------------------------

 

G:---------------------------------------------------------

D:-----------6-------------6-------------6-----------------

A:-----666-9---9-----666-9---9-----666-9---9-----666-7-8-9-

E:-7-7-----------7-7-----------7-7-----------7-7-----------

 

G:----------------------------------------------7-----

D:--------------------------------6-5-4-----777---7-7-

A:------4---4--------3-4-5-5-7--7-------5-5-----------

E:-5--5---5---5-4--4----------------------------------

 

G:------------------------------------------------

D:------------------------------------------------

A:-9-99-7-77-6-66-4---4----------------------6-66-

E:------------------5---5-7-77-9-99-10-10|10------

 

G:----------------------------------------------7-----

D:--------------------------------6-5-4-----777---7-7-

A:------4---4-5------3-4-5-5-7--7-------5-5-----------

E:-5--5---5-----4--4----------------------------------

 

G:------------------------------------------------

D:------------------------------------------------

A:-9-99-7-77-6-66-4---4----------------------6-66-

E:------------------5---5-7-77-9-99-10-10|10------

 

G:-----------6-------------6-------------6-------------6---

D:-----666-9---9-----666-9---9-----666-9---9-----666-9---9-

A:-7-7-----------7-7-----------7-7-----------7-7-----------

E:---------------------------------------------------------

 

G:---------------------------------------------------------

D:-----------6-------------6-------------6-------------6---

A:-----666-9---9-----666-9---9-----666-9---9-----666-9---9-

E:-7-7-----------7-7-----------7-7-----------7-7-----------

 

G:-----------6-------------6-------------6-------------6---

D:-----666-9---9-----666-9---9-----666-9---9-----666-9---9-

A:-7-7-----------7-7-----------7-7-----------7-7-----------

E:---------------------------------------------------------

 

G:---------------------------------------------------------

D:-----------6-------------6-------------6-------------6---

A:-----666-9---9-----666-9---9-----666-9---9-----666-9---9-

E:-7-7-----------7-7-----------7-7-----------7-7-----------

 

G:-----------6-------------6-------------6-------------6---

D:-----666-9---9-----666-9---9-----666-9---9-----666-9---9-

A:-7-7-----------7-7-----------7-7-----------7-7-----------

E:---------------------------------------------------------

 

G:---------------------------------------------------------

D:-----------6-------------6-------------6-----------------

A:-----666-9---9-----666-9---9-----666-9---9-----666-6-7-9-

E:-7-7-----------7-7-----------7-7-----------7-7-----------

 

G:-----------6-------------6-------------6-------------6---

D:-----666-9---9-----666-9---9-----666-9---9-----666-9---9-

A:-7-7-----------7-7-----------7-7-----------7-7-----------

E:---------------------------------------------------------

 

G:---------------------------------------------------------

D:-----------6-------------6-------------6-----------------

A:-----666-9---9-----666-9---9-----666-9---9---6-6-7-7-8-9-

E:-7-7-----------7-7-----------7-7-----------7-------------

 

G:----------------------------------------------7-----

D:--------------------------------6-5-4-----777---7-7-

A:------4---4--------3-4-5-5-7--7-------5-5-----------

E:-5--5---5---5-4--4----------------------------------

 

G:------------------------------------------------

D:------------------------------------------------

A:-9-99-7-77-6-66-4---4----------------------6-66-

E:------------------5---5-7-77-9-99-10-10|10------

 

G:----------------------------------------------7-----

D:--------------------------------6-5-4-----777---7-7-

A:------4---4-5------3-4-5-5-7--7-------5-5-----------

E:-5--5---5-----4--4----------------------------------

 

G:------------------------------------------------------

D:------------------------------------------------------

A:-9-99-7-77-6-66-4---4----------------------6-66-7-----

E:------------------5---5-7-77-9-99-10-10|10----------0-

 

 

 

 

Return to my to my Rancid tabs page

The Tablature is Copyright its respective owners.

Sign Up For My Newsletter
Subscribe | Unsubscribe

Site Map | Disclaimer | Privacy Policy | Media Kit | Submissions/Corrections

Website © 2000-2014 mattsmusicpage.com. All rights reserved.

Legal & DMCA: Matt's Music Page has been providing lyrics and tabs in a legal way, paying royalties each year to a few organizations. Then, all lyrics and tabs were removed from the site. Now, there's a new owner to the site, which purchased it August 26, 2014, and he is in negotiation to obtain licensing from BMI at the moment. If you have a specific DMCA request -- please do not hesitate to contact me via the contact button on top. I will do my very best to keep this site fully legal.

Get our toolbar!