Your One-Stop Source For
Music Lyrics
Bass and Guitar Tabs
and More...
>Music Lyrics Bass and Guitar Tabs

 

The Tabs Are Below

Learn To Read Tab
Chords Handbook
Corrections & Additions
Get Official Tab
Rancid tabs @ 911Tabs

 

Rancid

Listed M.I.A.

Intro and chorus:

G:----------------------------------------------------------------

D:----------1--1--1-1-1-1-2---------------------------------------

A:2--2--2-2---------------------------------------------2--2--2-2-

E:--------------------------0--0--0-0--2--2-2-2-4-2-4-2-----------

Intro and chorus continued:

G:-------------------------------------------

D:1--1--1-1-1-1-2-2--2--2-2--4--4-4-4-4-2-1--

A:------------------------------------------4

E:-------------------------------------------

Verse: (Repeat 7x)

G:---------------

D:----------2-2--

A:2-2-2-2-2-----2

E:---------------

Instrumental with Lars saying "Oh yeah": (Repeat before * 2x)

G:--------------------------*-------------------------

D:--------------------------*-------------------------

A:-----------------2--------*2---------5-5-5----------

E:5--5--5--5--2-2-----2-2-4-*---5-5-5---------2-2-2--5

 

 

 

Figured out and written by Fidget (bassist of Half Moon)

 

 

 

Return to my to my Rancid tabs page

The Tablature is Copyright its respective owners.

Sign Up For My Newsletter
Subscribe | Unsubscribe

Site Map | Disclaimer | Privacy Policy | Media Kit | Submissions/Corrections

Website © 2000-2014 mattsmusicpage.com. All rights reserved.

Legal & DMCA: Matt's Music Page has been providing lyrics and tabs in a legal way, paying royalties each year to a few organizations. Then, all lyrics and tabs were removed from the site. Now, there's a new owner to the site, which purchased it August 26, 2014, and he is in negotiation to obtain licensing from BMI at the moment. If you have a specific DMCA request -- please do not hesitate to contact me via the contact button on top. I will do my very best to keep this site fully legal.

Get our toolbar!

 

ORANGE Amplifier Brochure 2014 Booklet RARE Terror Thunderverb Bass Guitar
$5.0
ORANGE Amplifier Brochure 2014 Booklet RARE Terror Thunderverb Bass Guitar picture


Bass Guitar-Tans By Broadway Gifts
$14.94
Bass Guitar-Tans By Broadway Gifts picture


Original Photo Friends Playing Music, Backyard Deck, Classic Bass, Guitar
$4.88
Original Photo Friends Playing Music, Backyard Deck, Classic Bass, Guitar picture


Ernie Ball Music Man 40th Anniversary Stingray Bass Guitar 8 x 11 ad print
$3.98
Ernie Ball Music Man 40th Anniversary Stingray Bass Guitar 8 x 11 ad print picture


The Music Man Armada & Sabre Bass Guitar Marshall Amp ad 8 x 11 advertisement
$3.98
The Music Man Armada & Sabre Bass Guitar Marshall Amp ad 8 x 11 advertisement picture