Your One-Stop Source For
Music Lyrics
Bass and Guitar Tabs
and More...
Music Lyrics Bass and Guitar Tabs

 

The Tabs Are Below

Learn To Read Tab
Chords Handbook
Corrections & Additions
Get Official Tab
Rancid tabs @ 911Tabs

 

Rancid

BLACK LUNG

 

F G G# C A# C#

e----X----X----X----X----X----X----

B---X----X----X----X----X----X----

G---X----X----X----5-----3----6----

D---3-----5----6-----5-----3----6----

A---3-----5----6-----3-----1----4----

E---1-----3----4-----X----X----X----

Intro:

Rhythm Guitar:

G# G C

e|----------------------------------------|

B|----------------------------------------|

G|-------------------------5----5----5----5--|

D|--6----6----5----5----5----5----5----5--|

A|--6----6----5----5----3----3----3----3--|

E|--4----4----3----3----------------------|

Intro Lead Guitar:

e|----------------------------------------------|

B|----------------------------------------------|

G|----5--3--5--7--5--3--5---5--3--3--5----|

D|----------------------------------------------|

A|----------------------------------------------|

E|-----------------------------------------------|

Verse

F C# C

e-------------------------------------------------------------

B-------------------------------------------------------------

G-----------6--6---5--5--5--5----------------------------------

D---3--3---6--6---5--5--5--5----------REPEAT

A---3--3---4--4---3--3--3--3----------------------------------

E---1--1------------------------------------------------------

During the verse one guitar hits these notes:

e---5---------------------------------------------------------

B------6------------------------------------------------------

G-------------5-----------------------------------------------

D-------------------------------------------------------------

A-------------------------------------------------------------

E-------------------------------------------------------------

Chorus

F A# C# G#

e-------------------------------------------------------------

B-------------------------------------------------------------(Repeat 2x)

G---------------------3-3-3-3-3-3---6-6-6-6-6-6-------------------

D---3-3-3-3-3-3---3-3-3-3-3-3---6-6-6-6-6-6---6-6-6-6-6-6----- A---3-3-3-3-3-3---1-1-1-1-1-1---4-4-4-4-4-4---6-6-6-6-6-6-----

E---1-1-1-1-1-1---------------------------------------4-4-4-4-4-4-----

Chorus Con't

A# C#

e--------------------------------------------------------------

B--------------------------------------------------------------

G---3-3-3-3-3-3----6-6-6-6-6-6---------------------------------

D---3-3-3-3-3-3----6-6-6-6-6-6---------------------------------

A---1-1-1-1-1-1----4-4-4-4-4-4---------------------------------

E--------------------------------------------------------------

Intro

Verse

Chorus

Intro

Bridge( i guess, the part where Tim starts ranting)

C

e-------------------------------------------------------------

B-------------------------------------------------------------

G-------5-5--5-5--5--5-5--5-5---------------------------------

D-------5-5--5-5--5--5-5--5-5---------------------------------

A-------3-3--3-3--3--3-3--3-3---------------------------------

E-------------------------------------------------------------

Chorus

Intro(Rhythm)

Tabbed by Derek Carlson

 

 

 

Return to my to my Rancid tabs page

The Tablature is Copyright its respective owners.

Sign Up For My Newsletter
Subscribe | Unsubscribe

Site Map | Disclaimer | Privacy Policy | Media Kit | Submissions/Corrections

Website © 2000-2014 mattsmusicpage.com. All rights reserved.

Legal & DMCA: Matt's Music Page has been providing lyrics and tabs in a legal way, paying royalties each year to a few organizations. Then, all lyrics and tabs were removed from the site. Now, there's a new owner to the site, which purchased it August 26, 2014, and he is in negotiation to obtain licensing from BMI at the moment. If you have a specific DMCA request -- please do not hesitate to contact me via the contact button on top. I will do my very best to keep this site fully legal.

Get our toolbar!

 

VINTAGE SORRENTO MUSIC JEWELRY BOX
$45.0
VINTAGE SORRENTO MUSIC JEWELRY BOX picture


VINTAGE LACQUERED MUSIC BOX JAPAN
$25.99
VINTAGE LACQUERED MUSIC BOX JAPAN picture


Vintage Kehlsteinhaus Bavaria Germany Colorscope Cow Bell View Master Music Box
$8.99
Vintage Kehlsteinhaus Bavaria Germany Colorscope Cow Bell View Master Music Box picture


VINTAGE SCHMIDT Signed Collectible Musical Turning Clown
$9.99
VINTAGE  SCHMIDT Signed Collectible Musical Turning Clown picture


Vintage - Linen - Postcard - Stage - Radio City Music Hall - New York City
$3.75
Vintage - Linen - Postcard - Stage - Radio City Music Hall - New York City   picture