Your One-Stop Source For
Music Lyrics
Bass and Guitar Tabs
and More...
>Music Lyrics Bass and Guitar Tabs

 

The Tabs Are Below

Learn To Read Tab
Chords Handbook
Corrections & Additions
Get Official Tab
Rancid tabs @ 911Tabs

 

Rancid

I Wanna Riot

DROPPED D TUNING

*I DONT KNOW IF I TABBED THE BEATS RIGHT BUT LISTEN TO THE

SONG AND YOU'LL GET IT

 

I DONT KNOW HOW MANY TIMES YOU PLAY EACH PART OF THE SONG BUT JUST

LISTEN AND PLAY THE SONG IN ORDER THIS IS JUST EACH PART OF THE

SONG TABBED OUT

"I WANNA RIOT" IS OFF THE "ROOTS RADICAL"SINGLE AND PUNK-O-RAMA CD.

 

 

INTRO

G]---------------------------------------------------------

D]---3-5-----3-5-------------------------------------------

A]-5-------55-----5-4-3------------------------------------

E]--------------------------55-4-3-----------------------------

 

COOL RIFF BEFORE VERSE

G]---------------------------------------------------------

D]-------------------6677----2-33-3-4-5-5-53-------------------

A]---5-55----3-5---------5--------------------------5------------

E]---------------------------------------------------------

 

VERSE

G]----------------------------------------------------------

D]----------------------------------------------------------

A]---5-4--3-----5--4--3----------------------------2--3--4----------

E]-------------5-------------5-----1--2--3--4--5-------------------

 

CHORUS

G]----------------------------------------------------------

D]000--0-0-3-0-5-0-7-0-0-0-3-0-5-0-7-0------------------------

A]---------------------------------------------------------

E]----------------------------------------------------------

 

TABBED BY: CHRIS G-EDITED BY: BEN RASTEGARI

 

 

 

 

Return to my to my Rancid tabs page

The Tablature is Copyright its respective owners.

Sign Up For My Newsletter
Subscribe | Unsubscribe

Site Map | Disclaimer | Privacy Policy | Media Kit | Submissions/Corrections

Website © 2000-2014 mattsmusicpage.com. All rights reserved.

Legal & DMCA: Matt's Music Page has been providing lyrics and tabs in a legal way, paying royalties each year to a few organizations. Then, all lyrics and tabs were removed from the site. Now, there's a new owner to the site, which purchased it August 26, 2014, and he is in negotiation to obtain licensing from BMI at the moment. If you have a specific DMCA request -- please do not hesitate to contact me via the contact button on top. I will do my very best to keep this site fully legal.

Get our toolbar!

 

Wall Decor Metal Tin SIGN Home Garage plaque (ROLLING STONES Rock & Roll Band)
$11.95
Wall Decor Metal Tin SIGN Home Garage plaque (ROLLING STONES Rock & Roll Band) picture


THE ROLLING STONES Button/Badge set Mick Jagger, The Beatles, The Who, Led Zep
$5.97
THE ROLLING STONES Button/Badge set Mick Jagger, The Beatles, The Who, Led Zep picture


ROLLING STONES: VOODOO LOUNGE #1 Very Good
$30.0
ROLLING STONES: VOODOO LOUNGE #1 Very Good picture


ROLLING STONES: VOODOO LOUNGE #1 Near Mint
$50.0
ROLLING STONES: VOODOO LOUNGE #1 Near Mint picture


ROLLING STONES: VOODOO LOUNGE #1 Fine
$40.0
ROLLING STONES: VOODOO LOUNGE #1 Fine picture