Your One-Stop Source For
Music Lyrics
Bass and Guitar Tabs
and More...
Music Lyrics Bass and Guitar Tabs

 

The Tabs Are Below

Learn To Read Tab
Chords Handbook
Corrections & Additions
Get Official Tab
Rancid tabs @ 911Tabs

first you play (8 times):

|-----------------|

|-----------------|

|-----5-7-7-7-5-7-|

|-5-5-------------|

 

then (1time):

|---------------------------------|

|---------------------------------|

|---------5555555-7777777-5555555-|

|-5555555-------------------------|

 

then you play this again (6 times):

|-----------------|

|-----------------|

|-----5-7-7-7-5-7-|

|-5-5-------------|

 

then the pre-outro

|------------------------------------------------------------------------------------------------------------------------------|

|------------------------------------------------------------------------------------------------------------------------------|

|---------99-77-66-77--5555555-99-77-66-77--7777777-99-77-66-77----------99-77-66-77----------99-77-66-77--5555555-99-77-66-77-|

|-5555555--------------------------------------------------------5555555--------------5555555----------------------------------|

 

then you play this again (4 times):

|-----------------| |---|

|-----------------| |---|

|-----5-7-7-7-5-7-| end on: |---|

|-5-5-------------| |-5-|

 

 

Return to my to my Rancid tabs page

The Tablature is Copyright its respective owners.

Sign Up For My Newsletter
Subscribe | Unsubscribe

Site Map | Disclaimer | Privacy Policy | Media Kit | Submissions/Corrections

Website © 2000-2014 mattsmusicpage.com. All rights reserved.

Legal & DMCA: Matt's Music Page has been providing lyrics and tabs in a legal way, paying royalties each year to a few organizations. Then, all lyrics and tabs were removed from the site. Now, there's a new owner to the site, which purchased it August 26, 2014, and he is in negotiation to obtain licensing from BMI at the moment. If you have a specific DMCA request -- please do not hesitate to contact me via the contact button on top. I will do my very best to keep this site fully legal.

Get our toolbar!