Your One-Stop Source For
Music Lyrics
Bass and Guitar Tabs
and More...
Music Lyrics Bass and Guitar Tabs

 

The Tabs Are Below

Learn To Read Tab
Chords Handbook
Corrections & Additions
Get Official Tab
Rancid tabs @ 911Tabs

 

Band: Rancid

Song: Dead Bodies

Album: Rancid (2000)

 

Tabbed by: Shaun McDonald <diesel_weasel@lycos.com>

 

 

h - hammer on

. - pause

/ - slide up

 

 

The rhythm may be a little off but this is close to the right rhythm.

 

Intro: (2x)

 

G|--------12--|------------|------------|------------|

D|12--16------|16--14--12--|--------12--|------------|

A|------------|------------|12--16------|16--14--12--|

E|------------|------------|------------|------------|

 

G|--------------------------------|--------------------------------|

D|--------------------------------|--------------------------------|

A|13--13--13--13--13--13--13--13--|--------------------------------|

E|--------------------------------|15--15--15--15--15--15--15--15--|

 

G|--------------------------------|--------------------------------|

D|12--12--12--12--12--12--12--12-/|12--12--12--12--12--12--12--12--|

A|--------------------------------|--------------------------------|

E|--------------------------------|--------------------------------|

 

 

Verse: (8x)

 

G|----------------|----------------|

D|0---0-----------|----------------|

A|--------0---0---|1---1-----------|

E|----------------|--------3-3-3-3-|

 

 

Chorus: (2x)

 

G|----------------|----------------|----------------|----------------|

D|0-0-0-0-0-0-0-0-|4---2---4---2-0-|----------------|----------------|

A|----------------|----------------|0-0-0-0-0-0-0-0-|4---2---4-2-0---|

E|----------------|----------------|----------------|----------------|

 

G|----------------|----------------|----------------|--------------2-|

D|----------------|----------------|0-0-0-0-0-0-0-0-|4---2---4-2-0---|

A|1-1-1-1-1-1-1-1-|----------------|----------------|----------------|

E|----------------|3-3-3-3-3-3-3-3-|----------------|----------------|

 

 

Verse (8x)

 

Chorus(2x)

 

 

Bridge: (7x)

 

G|----------------7---h---9-------|10------9-------10--9---7-------|

D|7-------10----------------------|--------------------------------|

A|--------------------------------|--------------------------------|

E|--------------------------------|--------------------------------|

 

 

End of bridge:

 

G|----------------9-------7-------|--------------------------------|

D|7-------10----------------------|10-----9--------8-------7-------|

A|--------------------------------|--------------------------------|

E|--------------------------------|--------------------------------|

 

 

Chorus (2x)

 

 

Outro:(3x)

 

G|----------------|----------------|----------------|----------------|

D|----------------|----------------|----------------|----------------|

A|1-1-1-1-1-1-1-1-|----------------|5-5-5-5-5-5-5-5-|5------7----9---|

E|----------------|3-3-3-3-3-3-3-3-|----------------|----------------|

 

 

End like so:

 

G|----------------|----------------|----------------|----------------|

D|----------------|----------------|----------------|----------------|

A|1-1-1-1-1-1-1-1-|----------------|5.--------------|----------------|

E|----------------|3-3-3-3-3-3-3-3-|----------------|----------------|

 

 

Return to my to my Rancid tabs page

The Tablature is Copyright its respective owners.

Sign Up For My Newsletter
Subscribe | Unsubscribe

Site Map | Disclaimer | Privacy Policy | Media Kit | Submissions/Corrections

Website © 2000-2014 mattsmusicpage.com. All rights reserved.

Legal & DMCA: Matt's Music Page has been providing lyrics and tabs in a legal way, paying royalties each year to a few organizations. Then, all lyrics and tabs were removed from the site. Now, there's a new owner to the site, which purchased it August 26, 2014, and he is in negotiation to obtain licensing from BMI at the moment. If you have a specific DMCA request -- please do not hesitate to contact me via the contact button on top. I will do my very best to keep this site fully legal.

Get our toolbar!