Your One-Stop Source For
Music Lyrics
Bass and Guitar Tabs
and More...
>Music Lyrics Bass and Guitar Tabs

 

The Tabs Are Below

Learn To Read Tab
Chords Handbook
Corrections & Additions
Get Official Tab
Rancid tabs @ 911Tabs

 

Rancid

Daly City Train

 

--------------------------------------------------------------------------------

 

 

Verse: (Repeat 1x)

G:------------------------------------------------------------------

D:---2------------2---------3--2--3--2--3--2-3-5--5-----2-5-2-------

A:------5--3-5-------5--2-5--------------------------3-------5-3-2--

E:3------------3----------------------------------------------------

Verse: (continued)

G:------------------------------------------------

D:---2--5--2------------------2-------------------

A:3----------5-3--2--------------5--3-5-------2--5

E:-------------------5--4--3------------3--5------

Chorus:

G:--------------5----------5-----------------------------------------------

D:---5-------3------3-4-5------5-5-5-5-3-3-2-2-------5---------------------

A:3------3-3-----------------------------------5-5-3---3-3---3-------5-----

E:---------------------------------------------------------1---1-2-3---3-3-

Chorus: (continued)

G:------------------------------------------------

D:---5-----------------------------5-5-3-3-2-2----

A:3------3-3----3----------5-------------------5-5

E:-----------1------1-2-3------3-3----------------

Part with background vocals:

G:-----------------------------------------------

D:-----------------------------------------------

A:3-3-3-3-3-3-3-3--------------------------------

E:----------------1-1-1-1-1-1-1-1-3-3-3-3-3-3-3-3

A few notes after above and also ending:

G:-------------------

A:-------------------

D:3------------------

E:---1--3--1-1--3--1-

 

 

Figured out and written by Fidget (bassist of Half Moon)

 

 

 

 

Return to my to my Rancid tabs page

The Tablature is Copyright its respective owners.

Sign Up For My Newsletter
Subscribe | Unsubscribe

Site Map | Disclaimer | Privacy Policy | Media Kit | Submissions/Corrections

Website © 2000-2014 mattsmusicpage.com. All rights reserved.

Legal & DMCA: Matt's Music Page has been providing lyrics and tabs in a legal way, paying royalties each year to a few organizations. Then, all lyrics and tabs were removed from the site. Now, there's a new owner to the site, which purchased it August 26, 2014, and he is in negotiation to obtain licensing from BMI at the moment. If you have a specific DMCA request -- please do not hesitate to contact me via the contact button on top. I will do my very best to keep this site fully legal.

Get our toolbar!

 

Vintage Ceramic Santa Claus Musical w/ Drum of Toys Hand Painted
$12.47
Vintage Ceramic Santa Claus Musical w/ Drum of Toys Hand Painted picture


11373 - Guinevere Long Drum Sander Sleeves - 80 Grit
$10.99
11373 - Guinevere Long Drum Sander Sleeves - 80 Grit picture


1953 ADVERT Arthur Godfrey Toy Play Ukulele Spike Jones Drum Trap Set Piano
$12.99
1953 ADVERT Arthur Godfrey Toy Play Ukulele Spike Jones Drum Trap Set Piano picture


Holiday Christmas Handcrafted Nutcracker & Drum Stand Musical Box 18.5" Tall
$19.99
Holiday Christmas Handcrafted Nutcracker & Drum Stand Musical Box 18.5


RARE Vintage bicycle drum brake lever clamp, also fits pre war Schwinn levers
$9.99
RARE Vintage bicycle drum brake lever clamp, also fits pre war Schwinn levers  picture