Your One-Stop Source For
Music Lyrics
Bass and Guitar Tabs
and More...
>Music Lyrics Bass and Guitar Tabs

 

The Tabs Are Below

Learn To Read Tab
Chords Handbook
Corrections & Additions
Get Official Tab
Rancid tabs @ 911Tabs

Rancid’s California sun

 

Guitar + singing intro

 

Verse

 

|----------------------------------------------------------------------------|

|----------------------------------------------------------------------------|

|----3-3------------------3-3------3-3---------------------3-3----------|

|----------1-1----1-1--------------------1-1------1-1-------------------|

 

Bridge CAUSE IT’S WILD…

 

|----------------------------------------------------------------------------|

|----------------------------------------2-3-5-----------------------------|

|----0-1-3---3-1-111—3---1-2-3-------------------------------------|

|-1---------1-----------------3--------------------------------------------|

 

|----------------------------------------------------------------------------------------|

|----7-7-7-7-5-5-5-5-3-3-3-3-----------5-5-5-5-3-3-3-3----------------------|

|-----------------------------------7-7-7-7----------------------7-7-7-7-5-5-5-5-|

|----------------------------------------------------------------------------------------|

 

Chorus

 

|-----------------------------------------------------------------------------------------|

|-----------------------------------------------------------------------------------------|

|--3-3-3-3-3-3-3-3---------------------------------------------3-3-3-3-3-3-3-3-|

|------------------------1-1-1-1-1-1-1-1-5-5-5-5-3-3-3-3-----------------------|

 

 

 

 

 

STRUCTURE:

VERSE X2

BRIDGE X1

CHORUSX2

VERSE X2

BRIDGE X1

CHORUS X2

VERSE X2

BRIDGE X1

GUITAR AND SINGING CHORUS (NO BASS)

CHORUS X2

 

 

Return to my to my Rancid tabs page

The Tablature is Copyright its respective owners.

Sign Up For My Newsletter
Subscribe | Unsubscribe

Site Map | Disclaimer | Privacy Policy | Media Kit | Submissions/Corrections

Website © 2000-2014 mattsmusicpage.com. All rights reserved.

Legal & DMCA: Matt's Music Page has been providing lyrics and tabs in a legal way, paying royalties each year to a few organizations. Then, all lyrics and tabs were removed from the site. Now, there's a new owner to the site, which purchased it August 26, 2014, and he is in negotiation to obtain licensing from BMI at the moment. If you have a specific DMCA request -- please do not hesitate to contact me via the contact button on top. I will do my very best to keep this site fully legal.

Get our toolbar!

 

"Fender" Guitars and Amplifiers, Weathered Tin Sign, Bar, Home Decor
$10.99


OG7936- Vintage Military/RCA Pentode TV Amplifier Vacuum Tube 6AB7Y
$0.99
OG7936- Vintage Military/RCA Pentode TV Amplifier Vacuum Tube 6AB7Y picture


Fender Weathered – Guitars & Amplifiers Metal / Tin Sign 12.5" x 16" (#1860)
$8.79
Fender Weathered – Guitars & Amplifiers Metal / Tin Sign 12.5


R34 1979 Mick Jagger Walking With Amplifier Hand Gestures Original Photo
$9.99
R34 1979 Mick Jagger Walking With Amplifier Hand Gestures Original Photo picture


R34 1979 Mick Jagger Carrying Amplifier Platform Shoes Tank Top Original Photo
$9.99
R34 1979 Mick Jagger Carrying Amplifier Platform Shoes Tank Top Original Photo picture