Your One-Stop Source For
Music Lyrics
Bass and Guitar Tabs
and More...
Music Lyrics Bass and Guitar Tabs

 

The Tabs Are Below

Learn To Read Tab
Chords Handbook
Corrections & Additions
Get Official Tab
Rancid tabs @ 911Tabs

 

Rancid

BLOODCLOT

Rancid i wanna riot

http://hem1.passagen.se/copters

 

Tabbed by Matthew Picheca

 

his is mostly correct, there might be some errors in the interlude. I

think that Matt uses a 5 string bass for this, cause it would be a hell

of a lot easier in the interlude!

 

Intro and Chorus:

 

G:---------------------------------

D:-3-3-3-3-3---1-1-1-------0-1-2-3-

A:---------------------1-----------

E:---------------------------------

 

verse pt #1

 

G:-----------------------------

D:-3---3-1---1---------0-1-2-3-

A:------------1----1-----------

E:------------------1----------

 

verse pt.#2

 

G:--------------------------------------

D:-3-3-3-3--1-1-1-1-------------0-1-2-3-

A:-------------------1-1-1-1------------

E:----------------------------1---------

 

pt. be4 chorus ("no more guns r blazing")

 

G:-------------7-5-------------------5-3-------------------7-5-----

D:-----------------7-5-------------------5-3-------------------7-5-

A:-5-5-5-5-5-5---------0-3-3-3-3-3-3---------0-5-5-5-5-5-5---------

E:-----------------------------------------------------------------

 

pt. be4 chorus (cont.) ("pick it back up....")

 

G:----------------------

D:----------------------

A:-1-1-1-1-1--3-3-3-3-3-

E:----------------------

 

bridge

 

G:-10--10-10-10--9--8--8-8-8--9--10--10-10-10--9--8--8-8-8--9-

D:------------------------------------------------------------

A:------------------------------------------------------------

E:------------------------------------------------------------

 

bridge (cont.)

 

G:-10--10-10-10--9--8--8-8-8--9--10--10-10-10--9--8--8-8-8-

D:---------------------------------------------------------

A:---------------------------------------------------------

E:---------------------------------------------------------

 

Interlude (play 1st have once, 2nd half twice, last part once)

 

G:-7-8-9-10---|-5-8-5---------------------------------10-|-13-13-10----

D:------------|-------8-6-5----------/3-1----------------|----------13-

A:------------|-------------8-6-8---------3-2-1-----1----|-------------

E:------------|---------------------------------3-4------|-------------

 

interlude (cont.)

 

G:-------------------------

D:-11-10-------------------

A:-------13-11-8----6------

E:-----------------------6-

 

 

 

Return to my to my Rancid tabs page

The Tablature is Copyright its respective owners.

Sign Up For My Newsletter
Subscribe | Unsubscribe

Site Map | Disclaimer | Privacy Policy | Media Kit | Submissions/Corrections

Website © 2000-2014 mattsmusicpage.com. All rights reserved.

Legal & DMCA: Matt's Music Page has been providing lyrics and tabs in a legal way, paying royalties each year to a few organizations. Then, all lyrics and tabs were removed from the site. Now, there's a new owner to the site, which purchased it August 26, 2014, and he is in negotiation to obtain licensing from BMI at the moment. If you have a specific DMCA request -- please do not hesitate to contact me via the contact button on top. I will do my very best to keep this site fully legal.

Get our toolbar!