Your One-Stop Source For
Music Lyrics
Bass and Guitar Tabs
and More...
Music Lyrics Bass and Guitar Tabs

 

The Tabs Are Below

Learn To Read Tab
Chords Handbook
Corrections & Additions
Get Official Tab
Rancid tabs @ 911Tabs

Rancid: Battering Ram

Album: Rancid '7

Tunning: standerd

Tabed By: Manuel Robles

PM: palm mute

b: bend

 

 

Well i've been board latly and have come to realize that there are no

tabs for this song either..so ive been listening and listening to this song

over and over and ive finally come up wih a decent match for this song so i

hope this helps all you die-hard Rancid fans out there. Oh by the way i suggest

that you look for the lyrics for this song because i think this song is just

briliantly writen and i give time armstrong and matt freeman extream props,

so heres the tab for battering ram and i hope you enjoy it.

 

 

 

 

 

INTRO

2x

e|----------------------------- B|----------------------------- G|----------------------------- D|----------------------------- A|-----------8-8-8-10-11-10-8-- E|---3b------6-6-6-8--9--8--6--

pm................

 

2x

e|----------------------------- B|----------------------------- G|----------------------------- D|----------------------------- A|-----------8-8-8-10-11-10-8-- E|---3b------6-6-6-8--9--8--6--

pm.................

 

drum starts

2x

e|----------------------------- B|----------------------------- G|----------------------------- D|----------------------------- A|-----------8-8-8-10-11-10-8-- E|---3b------6-6-6-8--9--8--6--

pm.................

 

2x

yeeeeeaaaaaaaahhhhhh

e|----------------------------- B|----------------------------- G|----------------------------- D|----------------------------- A|-----------8-8-8-10-11-10-8-- E|---3b------6-6-6-8--9--8--6--

pm.................

 

VERSE 1

 

Some people are rotten deep..........

e|----------------------------------------------------------------------------|

B|----------------------------------------------------------------------------|

G|----------------------------------------------------------------------------|

D|--------------------6-6-6-6-6-6-6-6-------------------6-6-6-6-6-6-6-6-------|

A|---3-3-3-3-3-3-3-3--4-4-4-4-4-4-4-4--3-3-3-3-3-3-3-3--4-4-4-4-4-4-4-4-------|

E|---1-1-1-1-1-1-1-1-------------------1-1-1-1-1-1-1-1------------------------|

 

Battering Ram!

e|----------------------------------------------------------------------------|

B|----------------------------------------------------------------------------|

G|----------------------------------------------------------------------------|

D|--------------------6-6-6-6-6-6-6-6-------------------6-6-6-6-6-6-6-6-------|

A|---3-3-3-3-3-3-3-3--4-4-4-4-4-4-4-4--3-3-3-3-3-3-3-3--4-4-4-4-4-4-4-4-------|

E|---1-1-1-1-1-1-1-1-------------------1-1-1-1-1-1-1-1------------------------|

 

 

e|--------|

B|--------|

G|--------| (MATTS PART) BEEN RUNNIN MY HOLE LIFE AND IM STILL RUNNIN

D|---5----|

A|---3----|

E|--------|

 

 

VERSE 2

 

integrity is something you never had.......

e|----------------------------------------------------------------------------|

B|----------------------------------------------------------------------------|

G|----------------------------------------------------------------------------|

D|--------------------6-6-6-6-6-6-6-6-------------------6-6-6-6-6-6-6-6-------|

A|---3-3-3-3-3-3-3-3--4-4-4-4-4-4-4-4--3-3-3-3-3-3-3-3--4-4-4-4-4-4-4-4-------|

E|---1-1-1-1-1-1-1-1-------------------1-1-1-1-1-1-1-1------------------------|

 

i ain't stopping!

e|----------------------------------------------------------------------------|

B|----------------------------------------------------------------------------|

G|----------------------------------------------------------------------------|

D|--------------------6-6-6-6-6-6-6-6-------------------6-6-6-6-6-6-6-6-------|

A|---3-3-3-3-3-3-3-3--4-4-4-4-4-4-4-4--3-3-3-3-3-3-3-3--4-4-4-4-4-4-4-4-------|

E|---1-1-1-1-1-1-1-1-------------------1-1-1-1-1-1-1-1------------------------|

 

CHOURUS

 

battering ram........... right on right on right on right on thru to you

2X

e|------------------------------------- B|------------------------------------- G|-------------------------------------

D|-----------8-8-8-8-3-3-3-3-3-3-3-3---

A|---5-5-5-5-6-6-6-6-1-1-1-1-1-1-1-1---

E|---3-3-3-3---------------------------

 

 

battering ram........... right on right on right on right on thru to you

2X

e|------------------------------------- B|------------------------------------- G|-------------------------------------

D|-----------8-8-8-8-3-3-3-3-3-3-3-3---

A|---5-5-5-5-6-6-6-6-1-1-1-1-1-1-1-1---

E|---3-3-3-3---------------------------

 

 

VERSE 3

 

some people got no reliance..........

e|----------------------------------------------------------------------------|

B|----------------------------------------------------------------------------|

G|----------------------------------------------------------------------------|

D|--------------------6-6-6-6-6-6-6-6-------------------6-6-6-6-6-6-6-6-------|

A|---3-3-3-3-3-3-3-3--4-4-4-4-4-4-4-4--3-3-3-3-3-3-3-3--4-4-4-4-4-4-4-4-------|

E|---1-1-1-1-1-1-1-1-------------------1-1-1-1-1-1-1-1------------------------|

 

Battering Ram!

e|----------------------------------------------------------------------------|

B|----------------------------------------------------------------------------|

G|----------------------------------------------------------------------------|

D|--------------------6-6-6-6-6-6-6-6-------------------6-6-6-6-6-6-6-6-------|

A|---3-3-3-3-3-3-3-3--4-4-4-4-4-4-4-4--3-3-3-3-3-3-3-3--4-4-4-4-4-4-4-4-------|

E|---1-1-1-1-1-1-1-1-------------------1-1-1-1-1-1-1-1------------------------|

 

 

 

e|--------|

B|--------|

G|--------| (MATTS PART) BEEN RUNNIN MY HOLE LIFE AND IM STILL RUNNIN

D|---5----|

A|---3----|

E|--------|

 

VERSE 4

 

The man who talked **** i shut him down he's through.........

e|----------------------------------------------------------------------------|

B|----------------------------------------------------------------------------|

G|----------------------------------------------------------------------------|

D|--------------------6-6-6-6-6-6-6-6-------------------6-6-6-6-6-6-6-6-------|

A|---3-3-3-3-3-3-3-3--4-4-4-4-4-4-4-4--3-3-3-3-3-3-3-3--4-4-4-4-4-4-4-4-------|

E|---1-1-1-1-1-1-1-1-------------------1-1-1-1-1-1-1-1------------------------|

 

i ain't stopping!

e|----------------------------------------------------------------------------|

B|----------------------------------------------------------------------------|

G|----------------------------------------------------------------------------|

D|--------------------6-6-6-6-6-6-6-6-------------------6-6-6-6-6-6-6-6-------|

A|---3-3-3-3-3-3-3-3--4-4-4-4-4-4-4-4--3-3-3-3-3-3-3-3--4-4-4-4-4-4-4-4-------|

E|---1-1-1-1-1-1-1-1-------------------1-1-1-1-1-1-1-1------------------------|

 

 

CHOURUS 2

 

 

battering ram........... right on right on right on right on thru to you

2X

e|------------------------------------- B|------------------------------------- G|-------------------------------------

D|-----------8-8-8-8-3-3-3-3-3-3-3-3---

A|---5-5-5-5-6-6-6-6-1-1-1-1-1-1-1-1---

E|---3-3-3-3---------------------------

 

 

battering ram........... right on right on right on right on thru to you

2X

e|------------------------------------- B|------------------------------------- G|-------------------------------------

D|-----------8-8-8-8-3-3-3-3-3-3-3-3---

A|---5-5-5-5-6-6-6-6-1-1-1-1-1-1-1-1---

E|---3-3-3-3---------------------------

 

 

SOLO

 

awww yeahh.....right on through

e|---1-1-1-1-1-1-1-1--0-0-0-0-0-0-0-0--0-0-0-0-0-0-0-0------------------ B|---1-1-1-1-1-1-1-1--1-1-1-1-1-1-1-1--1-1-1-1-1-1-1-1--3-3-3-3-3-3-3-3-

G|---2-2-2-2-2-2-2-2--2-2-2-2-2-2-2-2--2-2-2-2-2-2-2-2--3-3-3-3-3-3-3-3-

D|------------------------------------------------------3-3-3-3-3-3-3-3-

A|----------------------------------------------------------------------

E|----------------------------------------------------------------------

 

awwwwwwawwwwwaaaaaaaa right on.. to ****ing stop!

e|---1-1-1-1-1-1-1-1--0-0-0-0-0-0-0-0--0-0-0-0-0-0-0-0---------------------------- B|---1-1-1-1-1-1-1-1--1-1-1-1-1-1-1-1--1-1-1-1-1-1-1-1--3-3-3-3-3-3-3-3------------ G|---2-2-2-2-2-2-2-2--2-2-2-2-2-2-2-2--2-2-2-2-2-2-2-2--3-3-3-3-3-3-3-3------------

D|------------------------------------------------------3-3-3-3-3-3-3-3------------

A|---------------------------------------------------------------------------------

E|---------------------------------------------------------------------------------

 

 

INTRO 2

 

2x

e|----------------------------- B|----------------------------- G|----------------------------- D|----------------------------- A|-----------8-8-8-10-11-10-8-- E|---3b------6-6-6-8--9--8--6--

pm.................

 

 

2x

 

yeah ***en you

e|----------------------------- B|----------------------------- G|----------------------------- D|----------------------------- A|-----------8-8-8-10-11-10-8-- E|---3b------6-6-6-8--9--8--6--

pm.................

 

VERSE 5

Some people are rotten deep..........

e|----------------------------------------------------------------------------|

B|----------------------------------------------------------------------------|

G|----------------------------------------------------------------------------|

D|--------------------6-6-6-6-6-6-6-6-------------------6-6-6-6-6-6-6-6-------|

A|---3-3-3-3-3-3-3-3--4-4-4-4-4-4-4-4--3-3-3-3-3-3-3-3--4-4-4-4-4-4-4-4-------|

E|---1-1-1-1-1-1-1-1-------------------1-1-1-1-1-1-1-1------------------------|

 

BATTERING RAAAAAAAAAMMMMMMMMM!

e|----------------------------------------------------------------------------|

B|----------------------------------------------------------------------------|

G|----------------------------------------------------------------------------|

D|--------------------6-6-6-6-6-6-6-6-------------------6-6-6-6-6-6-6-6-------|

A|---3-3-3-3-3-3-3-3--4-4-4-4-4-4-4-4--3-3-3-3-3-3-3-3--4-4-4-4-4-4-4-4-------|

E|---1-1-1-1-1-1-1-1-------------------1-1-1-1-1-1-1-1------------------------|

 

CHOURUS 3

 

 

battering ram........... right on right on right on right on thru to you

2X

e|------------------------------------- B|------------------------------------- G|-------------------------------------

D|-----------8-8-8-8-3-3-3-3-3-3-3-3---

A|---5-5-5-5-6-6-6-6-1-1-1-1-1-1-1-1---

E|---3-3-3-3---------------------------

 

battering ram........... right on right on right on right on thru to you

2X

e|------------------------------------- B|------------------------------------- G|-------------------------------------

D|-----------8-8-8-8-3-3-3-3-3-3-3-3---

A|---5-5-5-5-6-6-6-6-1-1-1-1-1-1-1-1---

E|---3-3-3-3---------------------------

 

2X

e|------------------------------------------- B|-------------------------------------------

G|-------------------------------------------

D|---5--8-8-8-8-8-8-8-8--5--8-8-8-8-8-8-8-8--

A|---3--6-6-6-6-6-6-6-6--3--6-6-6-6-6-6-6-6--

E|-------------------------------------------

 

END

e|-------|

B|-------|

G|-------|

D|---5---|

A|---5---|

E|---3---|

THE END

 

Well i hope this helps some people out. For any coments or corrections then e-mail

me at threeboysandacat@msn.com, well laterz.

 

 

 

Return to my to my Rancid tabs page

The Tablature is Copyright its respective owners.

Sign Up For My Newsletter
Subscribe | Unsubscribe

Site Map | Disclaimer | Privacy Policy | Media Kit | Submissions/Corrections

Website © 2000-2014 mattsmusicpage.com. All rights reserved.

Legal & DMCA: Matt's Music Page has been providing lyrics and tabs in a legal way, paying royalties each year to a few organizations. Then, all lyrics and tabs were removed from the site. Now, there's a new owner to the site, which purchased it August 26, 2014, and he is in negotiation to obtain licensing from BMI at the moment. If you have a specific DMCA request -- please do not hesitate to contact me via the contact button on top. I will do my very best to keep this site fully legal.

Get our toolbar!

 

BRAND NEW KEY OF C HOHNER MINI HARMONICA HARP KEYRING KEYCHAIN KEY RING CHAIN
$8.21
BRAND NEW KEY OF C HOHNER MINI HARMONICA HARP KEYRING KEYCHAIN KEY RING CHAIN picture


RISING SONS BAND *2X3 FRIDGE MAGNET* VOCALS GUITAR MANDOLIN DOBRO HARMONICA SONG
$3.99
RISING SONS BAND *2X3 FRIDGE MAGNET* VOCALS GUITAR MANDOLIN DOBRO HARMONICA SONG picture


Vtg Christmas Angel Baby Girl W Harmonica Boy W Book SET OF 2 W GOLD WINGS
$125.0
Vtg Christmas Angel Baby Girl W Harmonica Boy W Book SET OF 2 W GOLD WINGS  picture


Beautiful Hand Carved Jewelry Trinket Jewelry Box Harmonica Case Bone And Brass
$14.5
Beautiful Hand Carved Jewelry Trinket Jewelry Box Harmonica Case Bone And Brass picture


BRAND NEW* HOHNER BOB DYLAN SIGNATURE LIMITED EDITION HARMONICA COLLECTORS ITEM
$140.19
BRAND NEW* HOHNER BOB DYLAN SIGNATURE LIMITED EDITION HARMONICA COLLECTORS ITEM picture