Your One-Stop Source For
Music Lyrics
Bass and Guitar Tabs
and More...
Music Lyrics Bass and Guitar Tabs

 

The Tabs Are Below

Learn To Read Tab
Chords Handbook
Corrections & Additions
Get Official Tab
Rancid tabs @ 911Tabs

 

Rancid

The Ballad of Jimmy and Johnny

G C D

e---X----X----X----

B---X----X----X----

G--------5----7----

D---5----5----7----

A---5----3----5----

E---3----X----X----

 

G C

Jimmy and Johnny two friends of mine

 

D C

Skinheads what they claim

 

G C D C

Some outside similarities oh but they don't feel the same

 

G C

See Johnny thinks Jimmy's a mod

 

D C

And Jimmy thinks Johnny's a punk

 

G C D C

Jimmy listens to ska and Johnny likes last resort

 

G C D C

Jimmy and Johnny in the trenches going down tonight

 

G C

Drinking guiness smoking 555's

 

D C

Once you're in the middle you feel alright

 

e------------------------

B------------------------

G------------------5-6-7-

D-5----------------------

A------------------------

E------------------------

G C

Skinhead tats and a Fred Perry

 

e-------------------------

B-------------------------

G-------------------3-4-5-

D-3-----------------------

A-------------------------

E-------------------------

D C

There's a war in the cemetary

 

e----------------------

B----------------------

G----------------5-6-7-

D-5--------------------

A----------------------

E----------------------

 

G C

Started fighting stopped drinking

 

e------------------

B------------------

G------------3-4-5-

D-3----------------

A------------------

E------------------

D C

What the fuck were they thinking?!?

 

G C D C

Jimmy and Johnny tell me what you're seeing

 

G C D C

Jimmy and Johnny tell me what you're seeing

 

G C

Yeah yeah yeah yeah

 

G C

Yeah yeah yeah yeah

 

G C D C

Jimmy had his two-tone girl on the back of his scooter that night

 

G C D C

Johnny had a jacked up Chevy that could blow you right off the line

 

e------------------------

B------------------------

G------------------5-6-7-

D-5----------------------

A------------------------

E------------------------

G C

Skinhead tats and a Fred Perry

 

e-------------------------

B-------------------------

G-------------------3-4-5-

D-3-----------------------

A-------------------------

E-------------------------

D C

There's a war in the cemetary

 

e----------------------

B----------------------

G----------------5-6-7-

D-5--------------------

A----------------------

E----------------------

G C

Started fighting stopped drinking

 

e------------------

B------------------

G------------3-4-5-

D-3----------------

A------------------

E------------------

D C

What the fuck were they thinking?!?

 

G C D C

Jimmy and Johnny tell me what you're seeing

 

G C D C

Jimmy and Johnny tell me what you're seeing

 

G C

Yeah yeah yeah yeah

 

G C

Yeah yeah yeah yeah

 

D D D G G C C C D

 

D D D G G C C C D

 

G C D C

Jimmy and Johnny tell me what you're seeing

 

G C D C

Jimmy and Johnny tell me what you're seeing

 

G C

Yeah yeah yeah yeah

 

G C

Yeah yeah yeah yeah

 

D D D G G C C C D

 

D D D G G C C C D

 

 

 

Return to my to my Rancid tabs page

The Tablature is Copyright its respective owners.

Sign Up For My Newsletter
Subscribe | Unsubscribe

Site Map | Disclaimer | Privacy Policy | Media Kit | Submissions/Corrections

Website © 2000-2014 mattsmusicpage.com. All rights reserved.

Legal & DMCA: Matt's Music Page has been providing lyrics and tabs in a legal way, paying royalties each year to a few organizations. Then, all lyrics and tabs were removed from the site. Now, there's a new owner to the site, which purchased it August 26, 2014, and he is in negotiation to obtain licensing from BMI at the moment. If you have a specific DMCA request -- please do not hesitate to contact me via the contact button on top. I will do my very best to keep this site fully legal.

Get our toolbar!