Your One-Stop Source For
Music Lyrics
Bass and Guitar Tabs
and More...
Music Lyrics Bass and Guitar Tabs

 

The Tabs Are Below

Learn To Read Tab
Chords Handbook
Corrections & Additions
Get Official Tab
Rancid tabs @ 911Tabs

 

Avenues And Alleyways

Rancid

 

 

e:-----------------------------|

B:-----------------------------|

G:-7---7---5-------7---5-------|

D:-7---7---5---5---7---5---5---|

A:-5---5---3---5---5---3---5---|

E:-------------3-----------3---|

 

e:------------------------------------------------------------------------|

B:------------------------------------------------------------------------|

G:-7---7---7---7---7---7---7-\-5---5---5---5---5---5---5------------------|

D:-7---7---7---7---7---7---7-\-5---5---5---5---5---5---5----(repeat)------|

A:-5---5---5---5---5---5---5-\-3---3---3---3---3---3---3------------------|

E:------------------------------------------------------------------------|

I figured out the problem yeah the problem is you...

 

e:---------------------------------------------|

B:---------------------------------------------|

G:7-7-7-7-7-7-7-\-5-5-5-5-5-5-5-X--------------|

D:7-7-7-7-7-7-7-\-5-5-5-5-5-5-5-X-5-5-5-5-5-5-5|

A:5-5-5-5-5-5-5-\-3-3-3-3-3-3-3-X-5-5-5-5-5-5-5|

E:------------------------------X-3-3-3-3-3-3-3|

I'm a battering ram coming thru to you...

 

e:---------------------------------------------|

B:---------------------------------------------|

G:7-7-7-7-7-7-7-\-5-5-5-5-5-5-5-X--------------|

D:7-7-7-7-7-7-7-\-5-5-5-5-5-5-5-X-5-5-5-5-5-5-5|

A:5-5-5-5-5-5-5-\-3-3-3-3-3-3-3-X-5-5-5-5-5-5-5|

E:------------------------------X-3-3-3-3-3-3-3|

in every alleyway and every avenue Oi! Oi! Oi!

 

Lyrics:

I figured out the problem

Yea, the problem is you

You didn't see us comin'

Now there's nothin' you can do

Times are gonna change

Change or step aside

It's my point of view

That took you by surprise

 

The suns comin' up

Yea the new dawn arrives

A generation standing

Stand with anger in their eyes

No love in the city cause

There's no connection

Been stricken by a disease

A racial infection

 

Chorus:

I'm a battering ram

Comin' through to you

In every alleyway

And every avenue

 

Actions could erase

All the fear that we suffer

People segregated

No one understands each other

He's a different color

But we're the same kid

I'll treat him like my brother

He will treat me like his

 

Well an eye for an eye

Yea a tooth for a tooth

Brother against brother

Should be singin' with the group

The inner cities burning

Yea its screaming black and blue

The power and the passion

Of a million youth

 

(Chorus)

 

I figured out the problem

Yea the problem is you

You didn't see us comin'

Now there's nothin you can do

He's a different color

But we're the same kid

I'll treat him like my brother

He'll treat me like his

 

Of all the blood that spills

Of all the guts that fly

The media paints a picture

That stains

Pits dogs against cats

Now who is responsible

The power in the issue

The force is unstoppable

 

(Chorus x2)

 

 

Return to my to my Rancid tabs page

The Tablature is Copyright its respective owners.

Sign Up For My Newsletter
Subscribe | Unsubscribe

Site Map | Disclaimer | Privacy Policy | Media Kit | Submissions/Corrections

Website © 2000-2014 mattsmusicpage.com. All rights reserved.

Legal & DMCA: Matt's Music Page has been providing lyrics and tabs in a legal way, paying royalties each year to a few organizations. Then, all lyrics and tabs were removed from the site. Now, there's a new owner to the site, which purchased it August 26, 2014, and he is in negotiation to obtain licensing from BMI at the moment. If you have a specific DMCA request -- please do not hesitate to contact me via the contact button on top. I will do my very best to keep this site fully legal.

Get our toolbar!