Your One-Stop Source For
Music Lyrics
Bass and Guitar Tabs
and More...
Music Lyrics Bass and Guitar Tabs

 

The Tabs Are Below

Learn To Read Tab
Chords Handbook
Corrections & Additions
Get Official Tab
Rancid tabs @ 911Tabs

 

Rancid

Adina

 

--------------------------------------------------------------------------------

 

F G C

e|---X----X----X----|

B|---X----X----X----|

G|---X----X----5----|

D|---3----5----5----|

A|---3----5----3----|

E|---1----3----X----|

 

C e|-6-6-8-| x4

B|-6-6-8-|

G|-------|

D|-------|

A|-------|

E|-------|

 

e|-6666666666666666666-3-15-15-15-15-15-15-15-15-15-15-15-15-|

B|-6666666666666666666-3-15-15-15-15-15-15-15-15-15-15-15-15-|

G|-----------------------------------------------------------|

D|-----------------------------------------------------------|

A|-----------------------------------------------------------|

E|-----------------------------------------------------------|

 

C F C

I wanna go where the action is I wanna fly through the urban blight

 

F C

I wanna live like a shadow in the dark and only move at night

 

F C

A story bought a one story house that lets the winter bleed

 

F C

Twenty-one years old and no money to read

 

G (keep playing "G" all through chorus)

How'd she know the roof would cave in

 

Over and over again

 

Beat up and bruised a record that's broken

 

Adina's crying again

 

C F C

Beat up chevy with a trailor in tow is what they call home now

 

F C

One more hill or river to cross on the way to another town

 

F C

Crying in her beer and always running away

 

F C

Maybe not so much running but hoping for better days

 

G (keep playing "G" all through chorus)

How'd she know the roof would cave in

 

Over and over again

 

Beat up and bruised a record that's broken

 

Adina's crying again

 

C e|-6-6-8-| x4

B|-6-6-8-|

G|-------|

D|-------|

A|-------|

E|-------|

 

e|-6666666666666666666-15-15-15-15-15-15-15-18-18-18-18-18-18-18-18-|

B|-6666666666666666666-15-15-15-15-15-15-15-18-18-18-18-18-18-18-18-|

G|------------------------------------------------------------------|

D|------------------------------------------------------------------|

A|------------------------------------------------------------------|

E|------------------------------------------------------------------|

 

C F C

I wanna go where the action is I wanna fly through the urban blight

 

F C

I wanna live like a shadow in the dark and only move at night

 

F C

A story bought a one story house that lets the winter bleed

 

F C

Twenty-one years old and no money to read

 

G (keep playing "G" all through chorus)

How'd she know the roof would cave in

 

Over and over again

 

Beat up and bruised a record that's broken

 

Adina's crying again

 

C e|-6-6-8-| x4

B|-6-6-8-|

G|-------|

D|-------|

A|-------|

E|-------|

 

note: b=bend

e|-6666666666666666666-8-7-6-11-11-11-8b---------|

B|-6666666666666666666-------11-11-11-8b---------|

G|-----------------------------------------------|

D|-----------------------------------------------|

A|-----------------------------------------------|

E|-----------------------------------------------|

 

 

 

Return to my to my Rancid tabs page

The Tablature is Copyright its respective owners.

Sign Up For My Newsletter
Subscribe | Unsubscribe

Site Map | Disclaimer | Privacy Policy | Media Kit | Submissions/Corrections

Website © 2000-2014 mattsmusicpage.com. All rights reserved.

Legal & DMCA: Matt's Music Page has been providing lyrics and tabs in a legal way, paying royalties each year to a few organizations. Then, all lyrics and tabs were removed from the site. Now, there's a new owner to the site, which purchased it August 26, 2014, and he is in negotiation to obtain licensing from BMI at the moment. If you have a specific DMCA request -- please do not hesitate to contact me via the contact button on top. I will do my very best to keep this site fully legal.

Get our toolbar!