Your One-Stop Source For
Music Lyrics
Bass and Guitar Tabs
and More...
Music Lyrics Bass and Guitar Tabs

 

The Tabs Are Below

Learn To Read Tab
Chords Handbook
Corrections & Additions
Get Official Tab
RATM tabs @ 911Tabs

 

Rage Against the Machine (Evil Empire)

 

WITHOUT A FACE - tabbed by Sampo Vesa

 

 

Riff A

------

 

|---------------------------------|

|--tremolo picking on 5th fret----|

|--natural harmonic on 4th stg.---|

|-5555555555555555555555555555555-|

|---------------------------------|

|---------------------------------|

just before pre-chorus gradually

lift the finger away to sound open

4th string

 

Riff B

------

 

.w/effect........................

|---------------------------------|

|---------------------------------|

|-----------------0---------------|

|-----------------0---------------|

|---------------------------------|

|-3-1-3-1-3-1-3-1-3-------------1-|

 

Riff C

------

 

.w/effect...............................

|---------------------------------|---------------------------------|

|---------------------------------|---------------------------------|

|---------------------------------|---------3-----------------------|

|---------------------------------|---------------------------------|

|---------------------------------|---------1-----------------------|

|-3-1-3-1-3-1-3-1-3-1-3-1-3-1-3-1-|-1---3---------------------------|

 

Riff D

------

 

Slower

 

|---------------------------------|

|---------------------------------|

|---------------------------------|

|-5---3---5---3---5---3---5---3---|

|-5---3---5---3---5---3---5---3---|

|-3---1---3---1---3---1---3---1---|

 

End on G5

 

Return to my to my Rage Against the Machine tabs page

The Tablature is Copyright its respective owners.

Sign Up For My Newsletter
Subscribe | Unsubscribe

Site Map | Disclaimer | Privacy Policy | Media Kit | Submissions/Corrections

Website © 2000-2014 mattsmusicpage.com. All rights reserved.

Legal & DMCA: Matt's Music Page has been providing lyrics and tabs in a legal way, paying royalties each year to a few organizations. Then, all lyrics and tabs were removed from the site. Now, there's a new owner to the site, which purchased it August 26, 2014, and he is in negotiation to obtain licensing from BMI at the moment. If you have a specific DMCA request -- please do not hesitate to contact me via the contact button on top. I will do my very best to keep this site fully legal.

Get our toolbar!