Your One-Stop Source For
Music Lyrics
Bass and Guitar Tabs
and More...
Music Lyrics Bass and Guitar Tabs

 

The Tabs Are Below

Learn To Read Tab
Chords Handbook
Corrections & Additions
Get Official Tab
RATM tabs @ 911Tabs

 

Wind Below

 

[This was created with TabIt for Windows version 1.3]

 

E :| --------------------------|------------------------ 2|

B :| --------------------------|------------------------ ||

G :|*4-2-4-5-4-2-2-------------|------------------------*||

D :|*--------------4-3-2/-7-4--|6-/9--------------------*||

A :| --------------------------|4-/7---------------xxxxx ||

E :| --------------------------|------7-6-7-9-7-6-0xxxxx ||

 

E :--------------------------|------------------------|----------------|

B :--------------------------|------------------------|----------------|

G :4-2-4-5-4-2-2-------------|------------------------|----------------|

D :--------------4-3-2/-7-4--|6-/9--------------------|----------------|

A :--------------------------|4-/7--------------2-----|----------------|

E :--------------------------|------7-6-7-9-7-6-0-----|----------------|

 

E :----------------|| 22-23-22-23-18-19-18-19-19-20-19-20-19-20-19-20 8|

B :----------------|| ----------------------------------------------- ||

G :----------------||*-----------------------------------------------*||

D :----------------||*-----------------------------------------------*||

A :----------------|| ----------------------------------------------- ||

E :----------------|| ----------------------------------------------- ||

 

 

Return to my to my Rage Against the Machine tabs page

The Tablature is Copyright its respective owners.

Sign Up For My Newsletter
Subscribe | Unsubscribe

Site Map | Disclaimer | Privacy Policy | Media Kit | Submissions/Corrections

Website © 2000-2014 mattsmusicpage.com. All rights reserved.

Legal & DMCA: Matt's Music Page has been providing lyrics and tabs in a legal way, paying royalties each year to a few organizations. Then, all lyrics and tabs were removed from the site. Now, there's a new owner to the site, which purchased it August 26, 2014, and he is in negotiation to obtain licensing from BMI at the moment. If you have a specific DMCA request -- please do not hesitate to contact me via the contact button on top. I will do my very best to keep this site fully legal.

Get our toolbar!