Your One-Stop Source For
Music Lyrics
Bass and Guitar Tabs
and More...
Music Lyrics Bass and Guitar Tabs

 

The Tabs Are Below

Learn To Read Tab
Chords Handbook
Corrections & Additions
Get Official Tab
RATM tabs @ 911Tabs

 

VIETNOW

by

Rage Against the Machine

 

Legend: b= bend-the number after is how much to bend

\= slide down

( )= ghost note-optional note

~= vibrato-keep bending the string

*= Special effect-instructions on how to do the effect is under the note

T= tap-tap fret with finger

Moderate Rock=108

 

Intro

(distortion) (Repeat 3x)

e-------------|------------||------------------------------|-------------||

B-------------|------------||------------------------------|-------------||

G-------------|------------||.-----------------------------|------------.||

D-------------|------------||.-----------------------------|------------.||

A---------0-0-|--------0-0-||--------------------------0-0-|--------0-0--||

E-0-2-2-0-----|0-2-2-0-----||--0-2-2-0-2-2-2-0-2-2-2-0-----|0-2-2-0------||

(Play this after you repeat the above riff the third time)

(Repeat 7x) (Repeat 21x)

e-------------||-------------|----------------------------||-----------------||

B-7-----------||-------------|----------------------------||-----------------||

G-6-----------||.------------|---------------------------.||.---------------.||

D-7-----------||.------------|---------------------------.||.---------------.||

A-0-----------||---------0-0-|------------------------0-0-||-----------------||

E-------------||-0-2-2-0-----|0-2-2-0-2-2-2-0-2-2-2-0-----||-0-2-2-0-2-2-2-2-||

Fade in w/vol. knob

(Repeat 2x)

e-----------------------------||---------------------------|-------------------------------||

B-----------------------------||---------------------------|----x-x-x-x--------------------||

G----------------------------.||---------------------------|----x-x-x-x-------------------.||

D-4-4------------------------.||4-4------------------------|4-4-x-x-x-x-------------------.||

A-----------------------------||---------------------------|----x-x-x-x-x-x-x-x-x-x-x-x-x-x||

E-----0--2--0--5-5b1/2-(5)--0-||----0--2--0--5-4b1/2-(4)-0-|-------------------------------||

(Repeat 12x) (Repeat 1x)

e-----------------||------------|------------|-----------|-----------------||

B-----------------||------------|------------|-----------|-----------------||

G----------------.||.-----------|------------|-----------|----------------.||

D-5-4-5-4-5-4-5-4.||.-----------|------------|-----------|----------------.||

A-x-x-x-x-x-x-x-x-||3/-9---3----|3/-9---3----|3/-9--3----|3/-9---97-9-97-9-||

E-2-2-2-2-2-2-2-2-||----------0-|----------0-|---------0-|-----------------||

* * *

Depress Whammy Pedal so note sounds one octave lower

(Repeat this whole section 2x)

e-------------|------------------------|----------------------------|------------------------|

B-------------|------------------------|----------------------------|------------------------|

G-------------|--------4/--6~~~~~~(6)\-|----------------------------|--------4/--6~~~~~~(6)\-|

D-------------|------------------------|----------------------------|------------------------|

A---------0-0-|------------------------|------------------------0-0-|------------------------|

E-0-2-2-0-----|0-2-2-0-----------------|0-2-2-0-2-2-2-0-2-2-2-0-----|0-2-2-0-----------------|

(Repeat 4x) (Repeat 1x)

e-------------------------||------------------||------------||--------------------

B-------------------------||-----------TTTTTTT||TTTTTTTTTTTT||--------------------------

G------------------------.||---------4/9999999||999999999999||--------------------------------

D------------------------.||-----------*******||************||---------------------------

A-----------------xx-x--x-||------------------||------------||----------------------

E-0-2-2-0-2-2-2-2-xx-x--x-||0-2-2-0-2---------||------------||-----------------------------

Mute all strings with left hand while tapping with right hand

 

 

This is the original tab cuz it's from the Evil Empire book or transcriptions.

If you have any questions comments or any requests for tabs e-mail me.

EtHeR 99@aol.com

 

Return to my to my Rage Against the Machine tabs page

The Tablature is Copyright its respective owners.

Sign Up For My Newsletter
Subscribe | Unsubscribe

Site Map | Disclaimer | Privacy Policy | Media Kit | Submissions/Corrections

Website © 2000-2014 mattsmusicpage.com. All rights reserved.

Legal & DMCA: Matt's Music Page has been providing lyrics and tabs in a legal way, paying royalties each year to a few organizations. Then, all lyrics and tabs were removed from the site. Now, there's a new owner to the site, which purchased it August 26, 2014, and he is in negotiation to obtain licensing from BMI at the moment. If you have a specific DMCA request -- please do not hesitate to contact me via the contact button on top. I will do my very best to keep this site fully legal.

Get our toolbar!