Your One-Stop Source For
Music Lyrics
Bass and Guitar Tabs
and More...
>Music Lyrics Bass and Guitar Tabs

 

The Tabs Are Below

Learn To Read Tab
Chords Handbook
Corrections & Additions
Get Official Tab
RATM tabs @ 911Tabs

 

SONG: Testify

BAND: Rage Against the Machine

ALBUM: The Battle Of Los Angeles

TRANSCRIBED BY: Paul De Jaegher (www.angelfire.com/bc/tablature)

 

DATE: December 28, 1999

 

 

----------------------------------------------------------------------------------------------

 

TUNING: drop d (D,A,D,G,B,E)

 

 

 

MAIN RIFF:

 

E|---------------------------------------------|

B|--6------------------------------------------|

G|--5------------------------------------------|

D|--4-----------------------------x------------|

A|--5--------------3---------5p3--x------------|

D|-------3h5--0---------0---------x--0--5--3---|

 

E|---------------------------------------------|

B|--6-------------------------------------12b--|

G|--5-------------------------------------12b--|

D|--4------------7--10--------------x-----12b--|

A|--5------------7--10---------5p3--x----------|

D|-------3h5--0--7--10----0---------x--0-------|

 

 

INTRO AND VERSE:

 

Open D string played with a whole bunch of effects!

 

Return to my to my Rage Against the Machine tabs page

The Tablature is Copyright its respective owners.

Sign Up For My Newsletter
Subscribe | Unsubscribe

Site Map | Disclaimer | Privacy Policy | Media Kit | Submissions/Corrections

Website © 2000-2014 mattsmusicpage.com. All rights reserved.

Legal & DMCA: Matt's Music Page has been providing lyrics and tabs in a legal way, paying royalties each year to a few organizations. Then, all lyrics and tabs were removed from the site. Now, there's a new owner to the site, which purchased it August 26, 2014, and he is in negotiation to obtain licensing from BMI at the moment. If you have a specific DMCA request -- please do not hesitate to contact me via the contact button on top. I will do my very best to keep this site fully legal.

Get our toolbar!

 

VTG 32" TALL LARGE CENTURION PENDULUM BANJO 35 DAY WALL CLOCK RESTORATION/PARTS
$25.0
VTG 32


Vintage BANJO Miniature With Black Case, Salesman Sample, Only 7 " Long
$9.99
Vintage BANJO Miniature With Black Case, Salesman Sample, Only 7


Vintage Banjo Style Airguide Barometer Thermometer Humidty Faux Wood Plastic
$10.0
Vintage Banjo Style Airguide Barometer Thermometer Humidty Faux Wood Plastic picture


FROG BAND PLAYING BANJO JUG WASHBOARD Painted Resin FIGURINE 8.75 x 4.5 x 6.5
$13.99
 FROG BAND PLAYING BANJO JUG WASHBOARD Painted Resin FIGURINE 8.75 x 4.5 x 6.5 picture


Wm. L. Gilbert American Eagle Crested Banjo Clock 32 Inches
$9.99
Wm. L. Gilbert American Eagle Crested Banjo Clock 32 Inches picture