Your One-Stop Source For
Music Lyrics
Bass and Guitar Tabs
and More...
Music Lyrics Bass and Guitar Tabs

 

The Tabs Are Below

Learn To Read Tab
Chords Handbook
Corrections & Additions
Get Official Tab
RATM tabs @ 911Tabs

 

Roll Right

 

[This was created with TabIt for Windows version 1.3]

 

E :| ----------------------------------|----------------- 3|

B :| ----------------------------------|----------------- ||

G :|*----------------------------------|-----------------*||

D :|*----11-0-9-0----------------------|-----------------*||

A :| -------------11-0-10-0-9-0-7-0----|----------------- ||

E :| 9-0----------------------------7-0|7-9*------------- ||

 

E :-----------------|| ------------------|-------------------- 2|

B :10---------------|| 10--9-8-----------|8--9-(10)----------- ||

G :-----------------||*------------------|--------------------*||

D :-----------------||*------------------|--------------------*||

A :-----------------|| ------------------|-------------------- ||

E :-----------------|| ------------------|-------------------- ||

 

E :------------------|| ---------------- 7|

B :10--9-8-----------|| ---------------- ||

G :------------------||*----------------*||

D :------------------||*----------------*||

A :------------------|| ---------------- ||

E :------------------|| ---------------- ||

 

E :| ----------------------------------|----------------- 3|

B :| ----------------------------------|----------------- ||

G :|*----------------------------------|-----------------*||

D :|*----11-0-9-0----------------------|-----------------*||

A :| -------------11-0-10-0-9-0-7-0----|----------------- ||

E :| 9-0----------------------------7-0|7-9*------------- ||

 

E :| ------------------------------------------------|

B :| ------------------------------------------------|

G :|*(3)(3)(3)(3)(3)(3)(3)(3)(3)(3)(3)(3)(3)(3)(3)(3)|

D :|*------------------------------------------------|

A :| ------------------------------------------------|

E :| ------------------------------------------------|

 

E :------------------------------------------------|

B :------------------------------------------------|

G :(2)(2)(2)(2)(2)(2)(2)(2)(2)(2)(2)(2)(2)(2)(2)(2)|

D :------------------------------------------------|

A :------------------------------------------------|

E :------------------------------------------------|

 

E :------------------------------------------------|

B :------------------------------------------------|

G :(1)(1)(1)(1)(1)(1)(1)(1)(1)(1)(1)(1)(1)(1)(1)(1)|

D :------------------------------------------------|

A :------------------------------------------------|

E :------------------------------------------------|

 

E :------------------------------------------------ 1|0---------------|

B :------------------------------------------------ ||0---------------|

G :(0)(0)(0)(0)(0)(0)(0)(0)(0)(0)(0)(0)(0)(0)(0)(0)*||0---------------|

D :------------------------------------------------*||0---------------|

A :------------------------------------------------ ||0---------------|

E :------------------------------------------------ ||0---------------|

 

E :-------------16------------------------- 3|| --------------------- 7|

B :----19---------------------------------- ||| --------------------- ||

G :-------------------18-20----19----------*|||*---------------------*||

D :-19----19-18----18-------------------19-*|||*---------------------*||

A :-------------------------18----17-17---- ||| ----5-h7--------/5--- ||

E :---------------------------------------- ||| 0--------0-3--0------ ||

 

 

Return to my to my Rage Against the Machine tabs page

The Tablature is Copyright its respective owners.

Sign Up For My Newsletter
Subscribe | Unsubscribe

Site Map | Disclaimer | Privacy Policy | Media Kit | Submissions/Corrections

Website © 2000-2014 mattsmusicpage.com. All rights reserved.

Legal & DMCA: Matt's Music Page has been providing lyrics and tabs in a legal way, paying royalties each year to a few organizations. Then, all lyrics and tabs were removed from the site. Now, there's a new owner to the site, which purchased it August 26, 2014, and he is in negotiation to obtain licensing from BMI at the moment. If you have a specific DMCA request -- please do not hesitate to contact me via the contact button on top. I will do my very best to keep this site fully legal.

Get our toolbar!