Your One-Stop Source For
Music Lyrics
Bass and Guitar Tabs
and More...
Music Lyrics Bass and Guitar Tabs

 

The Tabs Are Below

Learn To Read Tab
Chords Handbook
Corrections & Additions
Get Official Tab
RATM tabs @ 911Tabs

 

renegades of funk- rage against the machine cover

-------------------------------------------------

transcribed by matt soby (whammyking@ignmail.com)

-------------------------------------------------

 

riff 1

------

with whammy up 1 octave and wah-wah

 

E|---------------------------------|

B|---------------------------------|

G|---------------------------------|

D|-2---2---2---2---3---3---3---3---| X 2

A|---3---3---3---3---5---5---5---5-|

D|---------------------------------|

 

sweep wah back and forth in straight 8ths

(listen to the song to see what i mean)

 

riff 2

------

whammy and wah off

 

E|-------------------------------|

B|-------------------------------|

G|-------------------------------|

D|------------------------35-----| X 3

A|-3-5-----3-5-----3-5----35-----|

D|------0-------0------0--35-----|

 

incidental note on the end of the third riff caused by turning the whammy

on while still holding the chord

 

 

riff 3

------

whammy and wah on

 

E|-------------------|

B|-------------------|

G|---------5---------|

D|-----5-7-----------| X 2

A|-5-8--------3-5----|

D|-------------------|

 

again, listen to the song to hear how the wah goes, it's a bit hard to describe

 

fill 1 (1:33)

-------------

 

E|---------|

B|---------|

G|---------|

D|-5-7-----| X 2

A|-5-7-----|

D|-5-7-----|

 

 

fill 2 (1:21)

-------------

 

E|----------------------------|

B|----------------------------|

G|-2slowbendto3slowreleaseto2-|

D|----------------------------| several times

A|----------------------------|

D|----------------------------|

 

follow the siren-like pattern on the recording

 

Return to my to my Rage Against the Machine tabs page

The Tablature is Copyright its respective owners.

Sign Up For My Newsletter
Subscribe | Unsubscribe

Site Map | Disclaimer | Privacy Policy | Media Kit | Submissions/Corrections

Website © 2000-2014 mattsmusicpage.com. All rights reserved.

Legal & DMCA: Matt's Music Page has been providing lyrics and tabs in a legal way, paying royalties each year to a few organizations. Then, all lyrics and tabs were removed from the site. Now, there's a new owner to the site, which purchased it August 26, 2014, and he is in negotiation to obtain licensing from BMI at the moment. If you have a specific DMCA request -- please do not hesitate to contact me via the contact button on top. I will do my very best to keep this site fully legal.

Get our toolbar!