Your One-Stop Source For
Music Lyrics
Bass and Guitar Tabs
and More...
>Music Lyrics Bass and Guitar Tabs

 

The Tabs Are Below

Learn To Read Tab
Chords Handbook
Corrections & Additions
Get Official Tab
RATM tabs @ 911Tabs

 

Know Your Enemy - Rage Against the Machine by Blindglow

 

Intro :

Play Twice

E:

------------------------------------------------------------------------------------|

B:

--------------------------------------------------------------------------|

G:

-----------------------------9-------------------------------------10-------------|

D: --11---9---11---9---11---9---11----11---9---11---9---11---10---11-------|

A: --11---9---11---9---11-------11-----11---9---11---9---11---------11-------|

E:

-------------------------------------------------------------|

 

E:

------------------------------------------------------------------------------------|

B:

------------------------------------------------------------------------------------|

G:

-----------------------------9-----------------------------------------------------|

D: --11---9---11---9---11---9------11---9---9---9---9---9---9---9-------------|

A: --11---9---11---9---11----------11---9---9---9---9---9---9---9-------------|

E:

------------------------------------------------------------------------------------|

 

Part 1:

E: ---------------------------------------------------------------------------|

B: ---------------------------------------------------------------------------|

G: ---------------------------------------------------------------------------|

D: --------------------2-------------------------------------5--4--2--------|

A: --2h4---4--4--2--0--4--2--4-------2h4---4--4--2---3--2--0---------|

E: --0h2---2--2--0------2--0--2-------0h2---2--2--0--------------------|

 

E: ---------------------------------------------------------------------------|

B: ---------------------------------------------------------------------------|

G: ---------------------------------------------------------------------------|

D: --------------------2-----------------7s6---6s4--4s2-------------------|

A: --2h4---4--4--2--0--4--2--4-------5s4--4s2--2s0---2---------------|

E: --0h2---2--2--0------2--0--2---------------------------0--------------|

 

Part 2:

E: ---------------------------------------------------------------------------|

B: ---------------------------------------------------------------------------|

G: ---------------------------------------------------------------------------|

D: ---4--------------------------2--3---4-----------------------------------|

A: --------------------2--3--4----------------------------2--3--2----------|

E: ------2--0--2--5-------------------------2--0--2--5------------5--2---|

 

Part 3:

The bridge where Manyard from Tool is singing

E: ---------------------------------------------------------------------------|

B: ----------------------------------------------------------------2---------|

G: ----------------------------------------------------------------2---------|

D: ---------------------------------------------------------------------------|

A: --2h4---4--4--4-----2h4---4--4--4-----2h4---4--4--4---------------|

E: --0h2---2--2--2-----0h2---2--2--2-----0h2---2--2--2---------------|

 

E: ----------------------------------------------------------------------------|

B: ----------------------------------------------------------------5--4--2---|

G: ----------------------------------------------------------------5--4--2---|

D: ----------------------------------------------------------------------------|

A: --2h4---4--4--4-----2h4---4--4--4-----2h4---4--4--4----------------|

E: --0h2---2--2--2-----0h2---2--2--2-----0h2---2--2--2----------------|

 

For more cool tabs, just use file search and look under blindglow, and blindglo.

 

 

Return to my to my Rage Against the Machine tabs page

The Tablature is Copyright its respective owners.

Sign Up For My Newsletter
Subscribe | Unsubscribe

Site Map | Disclaimer | Privacy Policy | Media Kit | Submissions/Corrections

Website © 2000-2014 mattsmusicpage.com. All rights reserved.

Legal & DMCA: Matt's Music Page has been providing lyrics and tabs in a legal way, paying royalties each year to a few organizations. Then, all lyrics and tabs were removed from the site. Now, there's a new owner to the site, which purchased it August 26, 2014, and he is in negotiation to obtain licensing from BMI at the moment. If you have a specific DMCA request -- please do not hesitate to contact me via the contact button on top. I will do my very best to keep this site fully legal.

Get our toolbar!

 


Perdomo Cigars Habano Barrel Sonor Drum Humidor RARE New Tuning key and box
$
Perdomo Cigars Habano Barrel Sonor Drum Humidor RARE New Tuning key and box picture


Vintage Cottonwood Indian Handmade Cochiti Drum Authentic Rawhide & Drumstick.
$
Vintage Cottonwood Indian Handmade Cochiti Drum Authentic Rawhide & Drumstick. picture


Rare Civil War Era USMC Drum
$
Rare Civil War Era USMC Drum picture


MSA PARACLETE SMC077-WOODLAND CAMO 2 Qt. Canteen or Saw Drum pouch
$
MSA PARACLETE SMC077-WOODLAND CAMO 2 Qt. Canteen or Saw Drum pouch picture


DW Drums Holographic Sticker
$
DW Drums Holographic Sticker picture


DW Drums sticker decal 5" x 3"
$
DW Drums sticker decal 5


Funko Pop ZZ Top: Frank Beard with Drums 166 w/Protector New
$
Funko Pop ZZ Top: Frank Beard with Drums 166 w/Protector New picture


Handmade Natural Stretch Cow Hide - Handmade Hand 5” Drum 2” Wide
$
Handmade Natural Stretch Cow Hide - Handmade Hand 5” Drum  2” Wide picture


Vintage Japan Taiko Drum
$
Vintage Japan Taiko Drum picture


Harbor Freight Chicago Electric Dual Drum Rock Tumbler Ball Bearing UPGRADE KIT
$
Harbor Freight Chicago Electric Dual Drum Rock Tumbler Ball Bearing UPGRADE KIT picture