Your One-Stop Source For
Music Lyrics
Bass and Guitar Tabs
and More...
Music Lyrics Bass and Guitar Tabs

 

The Tabs Are Below

Learn To Read Tab
Chords Handbook
Corrections & Additions
Get Official Tab
RATM tabs @ 911Tabs

 

"Killing in the Name" by Rage Against The Machine

Tabbed by Doug Wagner

 

 

Tuning:DGCFAD The little * thing means it is a bass part

LOW HI

 

D---------------------------------------------------------------------------

A---------------------------------------------------------------------------

F---------------------------------------------------------------------------

C--2------------------2------------------2--------------------2-------------

G--2------------------2------------------2--------------------2-------------

D--0------------------0------------------0--------------------0-------------

 

D---------------------------------------------------------------------------

A---------------------------------------------------------------------------

F---------------------------------------------------------------------------

C---------------------------------------------------------------------------

G--*------888-----888-----888-----888--*------------------------------------

D----000------000-----000-----000-------------------------------------------

Repeat 1 time

D---------------------------------------------------------------------------

A----------9-10----------9-10----------9-10----------10B--------------------

F*------89------------89------------89------------89------------------------*

C*--------------------------------------------------------------------------*

G---------------------------------------------------------------------------

D--000-----------000-----------000-----------000----------------------------

 

D---------------------------------------------------------------------------

A---------------------------------------------------------------------------

F---------------------------------------------------------------------------

C---------------------------------------------------------------------------

G-----888---888---888---8---------------------------------------------------

D--000---000---000---000----------------------------------------------------

Repeat 12 times

D---------------------------------------------------------------------------

A---------------------------------------------------------------------------

F---------------------------------------------------------------------------

C--------------5-6----------------------------------------------------------

G-----5-7----------7--------------------------------------------------------

D-0--------X-X-------0--3S-2------------------------------------------------

 

Return to my to my Rage Against the Machine tabs page

The Tablature is Copyright its respective owners.

Sign Up For My Newsletter
Subscribe | Unsubscribe

Site Map | Disclaimer | Privacy Policy | Media Kit | Submissions/Corrections

Website © 2000-2014 mattsmusicpage.com. All rights reserved.

Get our toolbar!