Your One-Stop Source For
Music Lyrics
Bass and Guitar Tabs
and More...
>Music Lyrics Bass and Guitar Tabs

 

The Tabs Are Below

Learn To Read Tab
Chords Handbook
Corrections & Additions
Get Official Tab
RATM tabs @ 911Tabs

Rage Against the Machine

How I Could Just Kill A Man

 

Album: Renegades

Tablature: Guitar

Transcribed By: Raul Becerra

 

--------------------------------------------------------------------------------

 

 

Drop D tuning

Intro

w/ wah?

|---------------------------------------------------------------|----------------------------------------------------------------|

|---------------------------------------------------------------|----------------------------------------------------------------|

|---------------------------------------------------------------|----------------------------------------------------------------|

|---------------------------------------------------------------|----------------------------------------------------------------|

|---------3---5----3---5------------3---5--5-----3/8----- |---------------3---5----3---5--------3--5--5------3---5---------|

|---------------------------------------------------------------|----------------------------------------------------------------|

 

 

Chorus

"Here's something you can't understand! How I Could Just Kill a Man!"

|----------------------------------------------------------------------------------------------------------------|

|----------------------------------------------------------------------------------------------------------------|

|----------------------------------------------------------------------------------------------------------------|

|--------0----3--------------------------------------------------------------------------------------------------|

|--------------------------------------------------3-------------------------x-x---------------------------------|

|--------------------0--------3----------5-------------0---0---0---0---0-----x-x----3--5--3----------------------|

 

 

Interlude

Once I tried to come in my home, take my chrome....

|------------------------------------------|

|------------------------------------------|

|------------------------------------------|

|------------------------------------------|

|------------------------------------------|

|-------0----0----0----0----0--------------|

 

 

Breakdown

w/ slapback delay

Its gonna be a long time before i finish.........Bullshit!

|------0--2----------0--2--2----------0--2--2-------0--2----------------|

|-----------------------------------------------------------------------|

|-----------------------------------------------------------------------|

|-----------------------------------------------------------------------|

|-----------------------------------------------------------------------|

|-----------------------------------------------------------------------|

 

Thats my transcription, if anybody has a better version

or could find some mistakes and correct them, please

e-mail me at pronto20@netzero.net

p.s. can any body tell me how to play the breakdown

because I think i'm playn it wrong?

 

-----

 

Rage Against the Machine

How I Could Just Kill a Man

 

Album: Renegades

Tablature: Guitar

Transcribed By: Jon Cendrowski at fuex.net

 

--------------------------------------------------------------------------------

 

Verse

e---------------------------------------------------------------------------

B---------------------------------------------------------------------------

G---------------------------------------------------------------------------

D-----------------------------------3---------------------------------------

A---3---5---3---5---3---5---5---3-------3---5---3---5---3---5---5---3---5---

D---------------------------------------------------------------------------

 

 

Verse Variation

e-----------------------

B-----------------------

G-----------------------

D---0---0---0---0---0---

A---0---0---0---0---0---

D---0---0---0---0---0---

 

 

Chorus

e-------------------------------------------------------

B-------------------------------------------------------

G-------------------------------------------------------

D-------3---------------------------------------3-5-3---

A---0-------0---3---5---3-------------------------------

D---0-------0---3---5-------0---0---0---0---0-----------

 

 

Interlude

e-----------------------

B---5-7---5-6-7---5-7---

G-----------------------

D-----------------------

A-----------------------

D-----------------------

 

 

Song Structure

Verse x4

Chorus x4

Verse x2.5

Verse Variation x4

Verse x.5

Verse Variation x1

Chorus x4

Interlude x8

Verse Variation x4

Verse x4

Chorus x8

Verse Variation x4

 

 

 

Return to my to my Rage Against the Machine tabs page

The Tablature is Copyright its respective owners.

Sign Up For My Newsletter
Subscribe | Unsubscribe

Site Map | Disclaimer | Privacy Policy | Media Kit | Submissions/Corrections

Website © 2000-2014 mattsmusicpage.com. All rights reserved.

Legal & DMCA: Matt's Music Page has been providing lyrics and tabs in a legal way, paying royalties each year to a few organizations. Then, all lyrics and tabs were removed from the site. Now, there's a new owner to the site, which purchased it August 26, 2014, and he is in negotiation to obtain licensing from BMI at the moment. If you have a specific DMCA request -- please do not hesitate to contact me via the contact button on top. I will do my very best to keep this site fully legal.

Get our toolbar!

 

Marshall Amplifiers - Zakk Wylde - 2006 Print Advertisement
$5.0
Marshall Amplifiers - Zakk Wylde -  2006 Print Advertisement   picture


Tube 3ea 6BW4 1NIB tstd amp radio amplifier ham
$7.95
Tube 3ea 6BW4 1NIB  tstd amp radio amplifier ham picture


Tube 11ea 6AK5 3NIB (2JAN) tstd amp radio amplifier ham
$10.95
Tube 11ea 6AK5   3NIB (2JAN)  tstd amp radio amplifier ham picture


Tube 11ea 6BE6 3NIB tstd amp radio amplifier ham
$10.95
Tube 11ea 6BE6 3NIB tstd amp radio amplifier ham picture


1979 Journey Rock Solid with Peavey amplifiers photo print Ad
$6.99
1979 Journey Rock Solid with Peavey amplifiers photo print Ad picture