Your One-Stop Source For
Music Lyrics
Bass and Guitar Tabs
and More...
Music Lyrics Bass and Guitar Tabs

 

The Tabs Are Below

Learn To Read Tab
Chords Handbook
Corrections & Additions
Get Official Tab
RATM tabs @ 911Tabs

 

The Ghost of Tom Joad by Rage Against the Machine

 

[This was created with TabIt for Windows version 1.3]

 

E :----------------|---------------- 3|----------------|

B :----------------|---------------- ||----------------|

G :----------------|----------------*||----------------|

D :----------------|----------------*||----------------|

A :--5-3-0---------|3-----0---3----- ||------------*---|

D :0-------5-3-0---|----5----------- ||0-----------*---|

 

E :| ----------------|----------------|----------------|

B :| ----------------|----------------|----------------|

G :|*----------------|----------------|----------------|

D :|*----------------|----------------|----------------|

A :| 3-----0---3-----|---------*------|3-----0---3-----|

D :| ----5-----------|0--------*------|----5-----------|

 

E :----------------|| ----------------|-| ----------------|

B :----------------|| ----------------|-| ----------------|

G :----------------||*----------------|-|*----------------|

D :----------------||*----------------|-|*----------------|

A :---------*------|| 3-----0---3-----|-| --5-3-0---------|

D :0--------*------|| ----5-----------|-| 0-------5-3-0---|

 

E :---------------- 3|----------------|

B :---------------- ||----------------|

G :----------------*||----------------|

D :----------------*||----------------|

A :3-----0---3----- ||----------------|

D :----5----------- ||0---------------|

 

 

Return to my to my Rage Against the Machine tabs page

The Tablature is Copyright its respective owners.

Sign Up For My Newsletter
Subscribe | Unsubscribe

Site Map | Disclaimer | Privacy Policy | Media Kit | Submissions/Corrections

Website © 2000-2014 mattsmusicpage.com. All rights reserved.

Legal & DMCA: Matt's Music Page has been providing lyrics and tabs in a legal way, paying royalties each year to a few organizations. Then, all lyrics and tabs were removed from the site. Now, there's a new owner to the site, which purchased it August 26, 2014, and he is in negotiation to obtain licensing from BMI at the moment. If you have a specific DMCA request -- please do not hesitate to contact me via the contact button on top. I will do my very best to keep this site fully legal.

Get our toolbar!