Your One-Stop Source For
Music Lyrics
Bass and Guitar Tabs
and More...
Music Lyrics Bass and Guitar Tabs

 

The Tabs Are Below

Learn To Read Tab
Chords Handbook
Corrections & Additions
Get Official Tab
RATM tabs @ 911Tabs

 

Artist: Rage Against The Machine

Song: Fuck The Police

Tabbed by: Bulkster

 

Intro/Chorus/Outro

 

E|------------------------------|-----6--|

B|---------8--7--6--5--4--3--2--|-----6--|

G|---------9--8--7--6--5--4--3--|--------|

D|------------------------------|--------|

A|--5--7------------------------|--5-----|

E|--3--5------------------------|--3-----|

 

 

Verse

 

E|-----------------------6--|

B|-----------------------6--|

G|--7xx7-x-7-7-x-77-5-7-----|

D|--xxxx-x-x-x-x-xx-x-x-----|

A|--5xx5-x-5-5-x-55-3-5-----|

E|--------------------------|

 

E|-----------------------6--|

B|-----------------------6--|

G|--7xx7-x-7-7-x-99-7-9-----|

D|--xxxx-x-x-x-x-xx-x-x-----|

A|--5xx5-x-5-5-x-77-5-7-----|

E|--------------------------|

 

 

 

Return to my to my Rage Against the Machine tabs page

The Tablature is Copyright its respective owners.

Sign Up For My Newsletter
Subscribe | Unsubscribe

Site Map | Disclaimer | Privacy Policy | Media Kit | Submissions/Corrections

Website © 2000-2014 mattsmusicpage.com. All rights reserved.

Legal & DMCA: Matt's Music Page has been providing lyrics and tabs in a legal way, paying royalties each year to a few organizations. Then, all lyrics and tabs were removed from the site. Now, there's a new owner to the site, which purchased it August 26, 2014, and he is in negotiation to obtain licensing from BMI at the moment. If you have a specific DMCA request -- please do not hesitate to contact me via the contact button on top. I will do my very best to keep this site fully legal.

Get our toolbar!