Your One-Stop Source For
Music Lyrics
Bass and Guitar Tabs
and More...
Music Lyrics Bass and Guitar Tabs

 

The Tabs Are Below

Learn To Read Tab
Chords Handbook
Corrections & Additions
Get Official Tab
RATM tabs @ 911Tabs

 

Rage Against the Machine (Rage Against the Machine)

 

FISTFUL OF STEEL - tabbed by ???

 

 

Standard tuning- E A D G B E

 

D|-take an effects palm mute/rattel up and down------|

E|-xxxx--xx-xxx-xxxx---xxx-xxx--------shreik----------|

 

 

E|----------------------------------------------------|

B|----------------------------------------------------|

G|----------------------------------------------------|

D|-2-4-4-X-X-2-4-4 -5-----2-4-4-X-X-2-4-4----5--------|

A|-2-4-4-X-X-2-4-4--5-----2-4-4-X-X-2-4-4--4---5------|

E|-0h2-2-X-X-0h2-2--------0h2-2-X-X-0h2-2-------------|

 

 

E|-------------------------|

B|-------------------------| repeat 3x

G|-------------------------|

D|-2-4-4-X-X-2-4-4 ------7-|

A|-2-4-4-X-X-2-4-4--4-5----|

E|-0h2-2-X-X-0h2-2---------|he playes a note with whammy, you get the note by ear but play strong

 

 

 

 

HE uses a wah wah pedal and holds it up then releases, you need a pedal that is really a fuckin

pedal......... like so (/_) pedal up then he pushes down (_)

 

E|-14--(14)~~~~| E|-10--10~~~~~|

B|-------------| B|------------|

G|-let ring----| G|------------|

 

HE uses a sound bit distorted in the wah pedal... i kind of have it but i'm not him..........

palm mute

G|0-------0-------0-------0-------0-------0-------0-------0-------|

D|--5-7-9----3-4-5---2-3-4---2-3-4---2-3-4---2-3-4---2-3-4---2-3-4|

A|-0-------0-------0-------0-------0-------0-------0-------0------|

E|----------------------------------------------------------------|

 

 

D|------------2-3-4---2-3-4------------2-3-4---2-3-4|

A|----------0-------0----------------0-------0------|

E|-0-2--~5~-----------------0-2--~5~----------------|

 

The second time it does this, a second guitar comes in sliding their

hand up and down the strings...........

 

Then the outro solo...

 

E|-17-17-17---18-18-18-------17-17-17-------------17-------17--------|

B|----------17----------17-------------17-19-19-19----17-17----17-19-|

G|-------------------------18----------------------------------------|

 

repeat once then.......

 

E|----------------------|19-19-19-17----19-19-19-17----21-19-19-17---|

B|----17----17-~17b19~\0|------------17-------------17-------------17|

G|-18----18-------------|--------------------------------------------|

 

repeat this part 2x

 

E|--------------------17b19-19-19-19-19\|

B|------------------------hold bend-----|

G|/14-/15-/16-/17-/17-------------------|

 

The end lick:

 

G|-3b4-|

 

 

 

 

Return to my to my Rage Against the Machine tabs page

The Tablature is Copyright its respective owners.

Sign Up For My Newsletter
Subscribe | Unsubscribe

Site Map | Disclaimer | Privacy Policy | Media Kit | Submissions/Corrections

Website © 2000-2014 mattsmusicpage.com. All rights reserved.

Legal & DMCA: Matt's Music Page has been providing lyrics and tabs in a legal way, paying royalties each year to a few organizations. Then, all lyrics and tabs were removed from the site. Now, there's a new owner to the site, which purchased it August 26, 2014, and he is in negotiation to obtain licensing from BMI at the moment. If you have a specific DMCA request -- please do not hesitate to contact me via the contact button on top. I will do my very best to keep this site fully legal.

Get our toolbar!

 

BRAND NEW KEY OF C HOHNER MINI HARMONICA HARP KEYRING KEYCHAIN KEY RING CHAIN
$8.21
BRAND NEW KEY OF C HOHNER MINI HARMONICA HARP KEYRING KEYCHAIN KEY RING CHAIN picture


RISING SONS BAND *2X3 FRIDGE MAGNET* VOCALS GUITAR MANDOLIN DOBRO HARMONICA SONG
$3.99
RISING SONS BAND *2X3 FRIDGE MAGNET* VOCALS GUITAR MANDOLIN DOBRO HARMONICA SONG picture


Vtg Christmas Angel Baby Girl W Harmonica Boy W Book SET OF 2 W GOLD WINGS
$125.0
Vtg Christmas Angel Baby Girl W Harmonica Boy W Book SET OF 2 W GOLD WINGS  picture


Beautiful Hand Carved Jewelry Trinket Jewelry Box Harmonica Case Bone And Brass
$14.5
Beautiful Hand Carved Jewelry Trinket Jewelry Box Harmonica Case Bone And Brass picture


BRAND NEW* HOHNER BOB DYLAN SIGNATURE LIMITED EDITION HARMONICA COLLECTORS ITEM
$140.19
BRAND NEW* HOHNER BOB DYLAN SIGNATURE LIMITED EDITION HARMONICA COLLECTORS ITEM picture