Your One-Stop Source For
Music Lyrics
Bass and Guitar Tabs
and More...
Music Lyrics Bass and Guitar Tabs

 

The Tabs Are Below

Learn To Read Tab
Chords Handbook
Corrections & Additions
Get Official Tab
RATM tabs @ 911Tabs

 

Down Rodeo

 

[This was created with TabIt for Windows version 1.3]

 

E :| ----------------------------------------------- 2|

B :| ----------------------------------------------- ||

G :|*13-13-13-13-13-13-13-13-13-13-13-13-13-13-13-13*||

D :|*11-11-11-11-11-11-11-11-11-11-11-11-11-11-11-11*||

A :| -9--9--9--9--9--9--9--9--9--9--9--9--9--9--9--9 ||

E :| -9--9--9--9--9--9--9--9--9--9--9--9--9--9--9--9 ||

 

G :| ----------------------------------------------- 2|

D :|*-----------------------------------------------*||

A :|*-----------------------------------------------*||

E :| -9--9--9--9--9--9--9--9--9--9--9--9--9--9--9--9 ||

 

=============================================================================

 

E :--------------------------------------|| --------------------------|

B :--------------------------------------|| --------------------------|

G :13-13-13-13-13-13-13-13-13-13-13\-----||*3-4-3---------------------|

D :11-11-11-11-11-11-11-11-11-11-11\--2--||*------4-------------------|

A :-9--9--9--9--9--9--9--9--9--9--9\--2--|| --------------------------|

E :-9--9--9--9--9--9--9--9--9--9--9\--0--|| --------2-0-0-2-0-2-3-2-0-|

 

G :--------------------------------------|| 3-4-3---------------------|

D :--------------------------------------||*------4-------------------|

A :--------------------------------------||*--------------------------|

E :-9--9--9--9--9--9--9--9--9--9--9\--0--|| --------2-0-0-2-0-2-3-2-0-|

 

=============================================================================

 

E :---------------------- 2|--------------------------|

B :---------------------- ||--------------------------|

G :-----3-4-3------------*||3-4-3---------------------|

D :----------------------*||------4-------------------|

A :---xx------x-x-x-x-x-x ||--------------------------|

E :0-2xx------x-x-x-x-x-x ||--------2-0-0-2-0-2-3-2-0-|

 

G :-----3-4-3------------ 2|3-4-3---------------------|

D :----------------------*||------4-------------------|

A :----------------------*||--------------------------|

E :0-2*-------0-0-0-0-0-0 ||--------2-0-0-2-0-2-3-2-0-|

 

=============================================================================

 

E :| ---------------- 1|| ---------------- 1|| ---------------- 1|

B :| ---------------- ||| ---------------- ||| ---------------- ||

G :|*----------------*|||*----------------*|||*----------------*||

D :|*----------------*|||*----4-----------*|||*----------------*||

A :| ----x-xx----x-xx ||| ----4-xx----x-xx ||| ----x-xx----x-xx ||

E :| 0-2-x-xx0-2-x-xx ||| 0-2-----0-2-x-xx ||| 0-2-x-xx0-2-x-xx ||

 

G :| ---------------- 1|| ---------------- 1|| ---------------- 1|

D :|*----------------*|||*----4-----------*|||*----------------*||

A :|*----------------*|||*------xx--------*|||*----------------*||

E :| 0-2-x-xx0-2-x-xx ||| 0-2-----0-2-x-xx ||| 0-2-x-xx0-2-x-xx ||

 

=============================================================================

 

E :| ---------------- 1|----------------|--------------------------|

B :| ---------------- ||----------------|--------------------------|

G :|*----------------*||----------------|--------------------------|

D :|*----4-----------*||----------------|----------------14---16---|

A :| ----4-xx----x-xx ||----x-xx--------|--------------------------|

E :| 0-2-----0-2-x-xx ||0-2-x-xx0-2-*---|--------------------------|

 

G :| ---------------- 1|----------------|--------------------------|

D :|*----4-----------*||----------------|-/5-5-5-5-5-5-5-----------|

A :|*------xx--------*||----------------|--------------------------|

E :| 0-2-----0-2-x-xx ||0-2-x-xx0-2-*-0-|--------------------------|

 

=============================================================================

 

E :| ---------------------------- 140-0-0-0-0-0-0-0-0-0-0-0|

B :| ---------------------------- ||0-0-0-0-0-0-0-0-0-0-0-0|

G :|*----------------------------*||2-2-2-2-2-2-2-2-2-2-2-2|

D :|*----------14--------16------*||0-0-0-0-0-0-0-0-0-0-0-0|

A :| 14---16--------------------- ||x-x-x-x-x-x-x-x-x-x-x-x|

E :| ---------------------------- ||3-3-3-3-3-3-3-3-3-3-3-3|

 

G :| ---------------------------- 14-----------------------|

D :|*-------------/5-5-5--5-5-5-5*||-----------------------|

A :|*----------------------------*||-----------------------|

E :| -0-2--*-0------------------- ||3-3-3-3-3-3-3-3-3-3-3-3|

 

=============================================================================

 

E :0-0-0-0-0-0-0-0---|| --------------------------|------------------- 3|

B :0-0-0-0-0-0-0-0---|| --------------------------|------------------- ||

G :2-2-2-2-2-2-2-2---||*3-4-3---------------------|-----3-4-3---------*||

D :0-0-0-0-0-0-0-0x2-||*------4-------------------|-------------------*||

A :x-x-x-x-x-x-x-xx2-|| --------------------------|---xx------xxx-x-xx ||

E :3-3-3-3-3-3-3-3-0-|| --------2-0-0-2-0-2-3-2-0-|0-2xx------xxx-x-xx ||

 

G :------------------|| 3-4-3---------------------|-----3-4-3--------- 3|

D :------------------||*------4-------------------|-------------------*||

A :------------------||*--------------------------|-------------------*||

E :3-3-3-3-3-3-3-3x0-|| --------2-0-0-2-0-2-3-2-0-|0-2xx------xxx-x-xx ||

 

 

 

Return to my to my Rage Against the Machine tabs page

The Tablature is Copyright its respective owners.

Sign Up For My Newsletter
Subscribe | Unsubscribe

Site Map | Disclaimer | Privacy Policy | Media Kit | Submissions/Corrections

Website © 2000-2014 mattsmusicpage.com. All rights reserved.

Legal & DMCA: Matt's Music Page has been providing lyrics and tabs in a legal way, paying royalties each year to a few organizations. Then, all lyrics and tabs were removed from the site. Now, there's a new owner to the site, which purchased it August 26, 2014, and he is in negotiation to obtain licensing from BMI at the moment. If you have a specific DMCA request -- please do not hesitate to contact me via the contact button on top. I will do my very best to keep this site fully legal.

Get our toolbar!

 

1939 LYRIC THEATRE New York PHOTO
$5.83
1939 LYRIC THEATRE New York PHOTO picture


Star Spangled Banner or Marines Hymn lyrics signed by WWII Charles W. Lindberg
$10.0
Star Spangled Banner or Marines Hymn lyrics signed by WWII Charles W. Lindberg picture


OLD LARGE HISTORIC PHOTO OF THE LYRIC THEATRE, SYDNEY c1930s, WAR BONDS BOOTH
$7.42
OLD LARGE HISTORIC PHOTO OF THE LYRIC THEATRE, SYDNEY c1930s, WAR BONDS BOOTH picture


SONG OF REVOLUTION CARD SET WITH 13 MOST FAVORED COMMUNIST SONGS LYRICS + NOTES
$24.99
SONG OF REVOLUTION CARD SET WITH 13 MOST FAVORED COMMUNIST SONGS LYRICS + NOTES picture


OLD LARGE HISTORIC PHOTO OF THE LYRIC THEATRE, SYDNEY c1930s, WAR LOANS BOOTH
$7.42
OLD LARGE HISTORIC PHOTO OF THE LYRIC THEATRE, SYDNEY c1930s, WAR LOANS BOOTH picture