Your One-Stop Source For
Music Lyrics
Bass and Guitar Tabs
and More...
>Music Lyrics Bass and Guitar Tabs

 

The Tabs Are Below

Learn To Read Tab
Chords Handbook
Corrections & Additions
Get Official Tab
RATM tabs @ 911Tabs

 

Rage Against The Machine

"Bulls On Parade"

Opening

e---------------------------------------------------------

b--------------------------------------------------------

g--------------------------------------------------------

d--------------------------------------------------------

a--------------------------------------------------------

e---3-0-3-3-0-3-3-0-3-0-3-3-0-3-3-0-repeat

 

Solo With Wah-Wah

--------------------------------------------------------

--------------------------------------------------------

----------------------------------------------------------

--7-7-X-X-7-7-X-X-X-X-X-X-------------------------

--7-7-X-X-7-7-X-X-X-X-X-X--------------------------

--5-5-X-X-5-5-X-X-X-X-X-X-Repeat-------------------------

 

Main Riff 1

---------------------------------------------------------

---------------------------------------------------------

---------------------------------------------------------

-5-6-8-9-8-7-6-5-5/4-4-5----------------------------------------------

-5-6-8-9-8-7-6-5-5/4-4-5----------------------------------------------

-3-4-6-7-6-5-4-3-3/2-2-3----------------------------------------------

 

Main Riff 2

--------------------------------------------------------------------

--------------------------------------------------------------------

--------------------------------------------------------------------

-6/5-5-5-5-5-5-5-6/5-5-5-5-5-5-5-----------------------------------------------------

-6/5-5-5-5-5-5-5-6/5-5-5-5-5-5-5------------------------------------------------------

-4/3-3-3-3-3-3-3-4/3-3-3-3-3-3-3-----------------------------------------------------

 

By:Dnomhcir

Send Questions or Comments To Dnomhcir

 

 

 

Return to my to my Rage Against the Machine tabs page

The Tablature is Copyright its respective owners.

Sign Up For My Newsletter
Subscribe | Unsubscribe

Site Map | Disclaimer | Privacy Policy | Media Kit | Submissions/Corrections

Website © 2000-2014 mattsmusicpage.com. All rights reserved.

Legal & DMCA: Matt's Music Page has been providing lyrics and tabs in a legal way, paying royalties each year to a few organizations. Then, all lyrics and tabs were removed from the site. Now, there's a new owner to the site, which purchased it August 26, 2014, and he is in negotiation to obtain licensing from BMI at the moment. If you have a specific DMCA request -- please do not hesitate to contact me via the contact button on top. I will do my very best to keep this site fully legal.

Get our toolbar!

 

VINTAGE 1970's DISK-GO-CASE 7" VINYL RECORD HOLDER - BLUE + 35 Records 45 RPM
$9.99
VINTAGE 1970's DISK-GO-CASE 7


WALT DISNEY - IT'S A SMALL WORLD - DISNEYLAND VINYL Record Lp
$4.75
WALT DISNEY - IT'S A SMALL WORLD - DISNEYLAND VINYL Record Lp  picture


Superman LP Vinyl Record Album, Power Records - RARE , Children's, Story, 1975,
$8.95
Superman LP Vinyl Record Album, Power Records - RARE , Children's, Story, 1975,  picture


Mary Poppins Walt Disney Vinyl Record Album 33 Family Musical Songs Disneyland
$3.7
 Mary Poppins Walt Disney Vinyl Record Album 33 Family Musical Songs Disneyland picture


LOT of 7 Vintage Vinyl Records 7 inch size most 45 RPM Mixed as shown
$6.05
LOT of 7 Vintage Vinyl Records 7 inch size most 45 RPM Mixed as shown picture