Your One-Stop Source For
Music Lyrics
Bass and Guitar Tabs
and More...
Music Lyrics Bass and Guitar Tabs

 

The Tabs Are Below

Learn To Read Tab
Chords Handbook
Corrections & Additions
Get Official Tab
RATM tabs @ 911Tabs

 

Written/Performed : Rage Against the Machine

Song : Testify

Tabbed By : J.R. (lawrence@megsinet.com)

Tuning : D,A,D,G

 

Intro

 

G--------------------------------------------------------

D--------------------------------------------------------

A-5-5-5-5-5-5-5-5-5-5-5-5-5-5-5-5-bend up on these notes-

D--------------------------------------------------------

 

Chorus:

 

G-------------------------------------------------------

D-----------------------------------------------------6-

A-------------3---5-3-------------------0-3---5-3-------

D-0---3-5-0-----0-------0-5-3-0---3-5-0-----0-------0---

 

Verse:

 

G---------------------------------------

D---------------------------------------

A----------------------------------8-10-

D-12/-------------12/0/12---12/0--------

 

Interlude:

 

G-----------------------------------------------------------

D-----------------------------------------------------------

A-------------------------0-3---5-3-------------------------

D-12/-------0-5-3-12/---------0---------12/-------0-5-3-12/-

 

G----------------

D----------------

A----0-3---5-3-5-

D--------0-------

 

Who Controls the Past Now:

 

G----------------------

D-3--------------------

A--------------3-3-----

D--------------------0-

 

Outro:

 

G-----------------------

D-----------------------

A-5---5---5---5-bend up-

D-----------------------

 

Return to my to my Rage bass tabs page

The Tablature is Copyright its respective owners.

Sign Up For My Newsletter
Subscribe | Unsubscribe

Site Map | Disclaimer | Privacy Policy | Media Kit | Submissions/Corrections

Website © 2000-2014 mattsmusicpage.com. All rights reserved.

Legal & DMCA: Matt's Music Page has been providing lyrics and tabs in a legal way, paying royalties each year to a few organizations. Then, all lyrics and tabs were removed from the site. Now, there's a new owner to the site, which purchased it August 26, 2014, and he is in negotiation to obtain licensing from BMI at the moment. If you have a specific DMCA request -- please do not hesitate to contact me via the contact button on top. I will do my very best to keep this site fully legal.

Get our toolbar!