Your One-Stop Source For
Music Lyrics
Bass and Guitar Tabs
and More...
Music Lyrics Bass and Guitar Tabs

 

The Tabs Are Below

Learn To Read Tab
Chords Handbook
Corrections & Additions
Get Official Tab
RATM tabs @ 911Tabs

 

Rage Against The Machine, from the EVIL EMPIRE album.

People of the Sun

~~~~~~~~~~~~~~~~~

 

Fill 1

G:----------|------------------|

D:-Guitar---|------------------|

A:--Intro---|--5h7--5--0--3h5--|

E:----------|------------------|

 

 

Chorus Riff (x8)

G:-----------------------------------------------|

D:*---------------------------------------------*|

A:*--0--3--0--5--3-3--0--R--0--3--0--5--3-3--R--*|

E:-----------------------------------------------|

 

 

Verse Riff (x7) sl. **

G:------------------------------------------|---------------(3)/18-18-18--|

D:*------------------------------------5---*|-----------------------------|

A:*----------------------------------------*|-----------------------------|

E:--2h3--2h3--2h3--2h3--2h3--2h3--2h3-(3)---|--2h3--2h3--2h3--------------|

**Note: these high C# notes are

tremelo picked VERY quickly.

 

 

 

G:-----------------|-----------------------------|----------|

D:---Chorus-Riff---|-----------------------------|--Fill-1--|

A:------(x4)-------|--0-R----0-R----0-R----0-R---|----------|

E:-----------------|-----------------------------|----------|

 

 

G:--------------------------|----------|-------------|--------|

D:--------------------------|--Fill-1--|-Verse-Riff--|--Rest--|

A:--0-R---0-R---0-R---0-R---|----------|----(x8)-----|--------|

E:--------------------------|----------|-------------|--------|

 

 

G:--------------||

D:--Verse-Riff--||

A:-----(x8)-----||

E:--------------||

/----------------------------------------\

| ____ ____ |

| ( `--' .-' _T_T_T_T_ |

| |8| O O |||||||||||||||||||[o o o o/ |

| (__,--.____\ `~~~`--' |

| from the desk of jaco pastorius.. |

| acanterb@vt.edu |

| http://www.vt.edu:10021/A/acanterb/ |

\----------------------------------------/

 

Return to my to my Rage bass tabs page

The Tablature is Copyright its respective owners.

Sign Up For My Newsletter
Subscribe | Unsubscribe

Site Map | Disclaimer | Privacy Policy | Media Kit | Submissions/Corrections

Website © 2000-2014 mattsmusicpage.com. All rights reserved.

Get our toolbar!