Your One-Stop Source For
Music Lyrics
Bass and Guitar Tabs
and More...
Music Lyrics Bass and Guitar Tabs

 

The Tabs Are Below

Learn To Read Tab
Chords Handbook
Corrections & Additions
Get Official Tab
RATM tabs @ 911Tabs

 

Bombtrack

By Rage Against The Machine

Tabbed By AltGuitar

Note: This is one of my few text tabs, most of mine are

in TabIt form. (This was extracted from a TabIt

file I wrote)

For More Really Cool, and Accurate Tab Type:

AltGuitar

In file search

 

E :------------------------------|------------------------------- 2|

B :------------------------------|------------------------------- ||

G :----------------------------0-|-------------------------------*||

D :--2-0---0---------2-0---0-2---|--2-0---0---------2-0---0------*||

A :------2---2-0---------2-------|------2---2-0---------2---2---- ||

E :0-------------3-0-------------|0-------------3-0-----------3-2 ||

 

G :----------------------------0-|------------------------------- 2|

D :--2-0---0---------2-0---0-2---|--2-0---0---------2-0---0------*||

A :------2---2-0---------2-------|------2---2-0---------2---2----*||

E :0-------------3-0-------------|0-------------3-0-----------3-2 ||

 

=============================================================================

 

E :------------------------------|------------------------||

B :------------------------------|------------------------||

G :----------------------------0-|------------------------||

D :--2-0---0---------2-0---0-2---|--2-0---0---------------||

A :------2---2-0---------2-------|------2---2-0-----------||

E :0-------------3-0-------------|0-------------3-0-------||

 

G :----------------------------0-|------------------------||

D :--2-0---0---------2-0---0-2---|--2-0---0---------------||

A :------2---2-0---------2-------|------2---2-0-----------||

E :0-------------3-0-------------|0-------------3-0-------||

 

=============================================================================

 

E :| ------------------|------------------ 1|

B :| ------------------|------------------ ||

G :|*------------------|------------6-5-4-*||

D :|*----4---------4-2-|----4-------6-5-4-*||

A :| ------------------|------------4-3-2- ||

E :| 0-2---0-2-0-2-----|0-2---0-2-0-4-3-2- ||

 

G :| ------------------|------------------ 1|

D :|*----4---------4-2-|----4-------------*||

A :|*------------------|------------4-3-2-*||

E :| 0-2---0-2-0-2-----|0-2---0-2-0------- ||

 

 

 

Return to my to my Rage Against the Machine tabs page

The Tablature is Copyright its respective owners.

Sign Up For My Newsletter
Subscribe | Unsubscribe

Site Map | Disclaimer | Privacy Policy | Media Kit | Submissions/Corrections

Website © 2000-2014 mattsmusicpage.com. All rights reserved.

Legal & DMCA: Matt's Music Page has been providing lyrics and tabs in a legal way, paying royalties each year to a few organizations. Then, all lyrics and tabs were removed from the site. Now, there's a new owner to the site, which purchased it August 26, 2014, and he is in negotiation to obtain licensing from BMI at the moment. If you have a specific DMCA request -- please do not hesitate to contact me via the contact button on top. I will do my very best to keep this site fully legal.

Get our toolbar!

 

1939 LYRIC THEATRE New York PHOTO
$5.83
1939 LYRIC THEATRE New York PHOTO picture


Star Spangled Banner or Marines Hymn lyrics signed by WWII Charles W. Lindberg
$10.0
Star Spangled Banner or Marines Hymn lyrics signed by WWII Charles W. Lindberg picture


OLD LARGE HISTORIC PHOTO OF THE LYRIC THEATRE, SYDNEY c1930s, WAR BONDS BOOTH
$7.42
OLD LARGE HISTORIC PHOTO OF THE LYRIC THEATRE, SYDNEY c1930s, WAR BONDS BOOTH picture


SONG OF REVOLUTION CARD SET WITH 13 MOST FAVORED COMMUNIST SONGS LYRICS + NOTES
$24.99
SONG OF REVOLUTION CARD SET WITH 13 MOST FAVORED COMMUNIST SONGS LYRICS + NOTES picture


OLD LARGE HISTORIC PHOTO OF THE LYRIC THEATRE, SYDNEY c1930s, WAR LOANS BOOTH
$7.42
OLD LARGE HISTORIC PHOTO OF THE LYRIC THEATRE, SYDNEY c1930s, WAR LOANS BOOTH picture