Your One-Stop Source For
Music Lyrics
Bass and Guitar Tabs
and More...
Music Lyrics Bass and Guitar Tabs

 

The Tabs Are Below

Learn To Read Tab
Chords Handbook
Corrections & Additions
Get Official Tab
RATM tabs @ 911Tabs

 

Song Title: Killing in the name

Artist: Rage Against The Machine

----------------------------------------------

 

Well,this is a kinda "upgrade" of the TAB already in this site.

Here is a brief legend of the symbols used in this transcription:

+ means slap w/thumb

v means pop w/finger

 

 

 

***INTRO***

G |-----|-------------------------------------------------------------...

D |-----|-------------------------------------------------------------...

A |-----|------6-6-6-----6-6-6-----6-6-6-----6-6-6-----5-5-5-----5-5-5...

D |-----|-0-0-0-----0-0-0-----0-0-0-----0-0-0-----0-0-0-----0-0-0-----...

 

°°°VERSE°°°

G |--------------------------------...

D |------3-4-------------3-4-------...

A |--3-5----5--------3-5----5------...

D |-0---x----0/3-2--0---x----0/3-2-...

++ +v ++ + + ++ +v ++ + +

 

***BRIDGE("killing in the name of...")***

G |-------4-----3-----2------------------.........---------------------...

D |--------------------------------------.........---------------------...

A |--3-5-5-3-5-5-3-5-5-------------------.........-5-(5)-5-(5)-5-5---3-...

D |-x------------------0/3/3-2---0-0-x-0-.........----------------3-5--...

now you do what... those who died...

 

 

°°°Variation to the verse°°°

G |---------------5-6-7-10--

D |------3-4-5-6-7----------

A |--3-5--------------------

D |-0---x-------------------

 

>>>OUTRO<<<

G |---------------------|- ...

D |---------------------|-then like ...

A |----------3-5-7-7-7\-|-"those who died..."...

D |-0-2-3-5-7-----------|- ...

 

 

Obviously,the symbols / and \ mean to slide(up or down).

 

THIS TAB WAS TRANSCRIBED BY MAK

 

Massimo Piacentini <gf.piacentini@selta.inet.it>

 

 

 

Submitted by: Massimo Piacentini (gf.piacentini@selta.inet.it)

 

Return to my to my Rage bass tabs page

The Tablature is Copyright its respective owners.

Sign Up For My Newsletter
Subscribe | Unsubscribe

Site Map | Disclaimer | Privacy Policy | Media Kit | Submissions/Corrections

Website © 2000-2014 mattsmusicpage.com. All rights reserved.

Legal & DMCA: Matt's Music Page has been providing lyrics and tabs in a legal way, paying royalties each year to a few organizations. Then, all lyrics and tabs were removed from the site. Now, there's a new owner to the site, which purchased it August 26, 2014, and he is in negotiation to obtain licensing from BMI at the moment. If you have a specific DMCA request -- please do not hesitate to contact me via the contact button on top. I will do my very best to keep this site fully legal.

Get our toolbar!

 

VINTAGE SORRENTO MUSIC JEWELRY BOX
$45.0
VINTAGE SORRENTO MUSIC JEWELRY BOX picture


VINTAGE LACQUERED MUSIC BOX JAPAN
$25.99
VINTAGE LACQUERED MUSIC BOX JAPAN picture


Vintage Kehlsteinhaus Bavaria Germany Colorscope Cow Bell View Master Music Box
$8.99
Vintage Kehlsteinhaus Bavaria Germany Colorscope Cow Bell View Master Music Box picture


VINTAGE SCHMIDT Signed Collectible Musical Turning Clown
$9.99
VINTAGE  SCHMIDT Signed Collectible Musical Turning Clown picture


Vintage - Linen - Postcard - Stage - Radio City Music Hall - New York City
$3.75
Vintage - Linen - Postcard - Stage - Radio City Music Hall - New York City   picture