Your One-Stop Source For
Music Lyrics
Bass and Guitar Tabs
and More...
>Music Lyrics Bass and Guitar Tabs

 

The Tabs Are Below

Learn To Read Tab
Chords Handbook
Corrections & Additions
Get Official Tab
RATM tabs @ 911Tabs

 

Rage Against The Machine

Guerrilla Radio

 

This seems a little discombobulated but if you should need help in

figuring it out, just listen to the recording. Cool song and a cool

song just to screw around with.

 

 

Intro/chorus

x7 after 7th time

G----------------------]--2---------1-------------------

D----------------------]-------------------------------

A------------------0-2-]-------------------------------

E--0--2-2-0-2-0-2------]----2--0------2------0-2-------

 

Verse Little lick

G-22-x-44-x-55--2-------]-------------------------------

D-----------------------]--4p2--------------------------

A-----------------------]-------4p0---------------------

E---------------2-------]-------------------------------

 

Chorus/build-up Throw in for variation

G---------------------------------]----------------------

D---------------------------------]-4444444444444444-----

A------------------0-2------------]----------------------

E--0--2-2-0-2-0-2------0--2-2-0-2-]----------------------

 

Build up

G-------------------------------------------------------

D---4444444444444444------------------------------------

A-2-----------------------------------------------------

E-------------------------------------------------------

 

 

Final Lick ("All hell...")

G-----------

D-----------

A-----------

E--0-2--2/14

 

I think this is right. I just made a few corrections on the tab

already posted. The build up may be a little off though. Listen

to the recording for timing and such. There it is!

 

Return to my to my Rage bass tabs page

The Tablature is Copyright its respective owners.

Sign Up For My Newsletter
Subscribe | Unsubscribe

Site Map | Disclaimer | Privacy Policy | Media Kit | Submissions/Corrections

Website © 2000-2014 mattsmusicpage.com. All rights reserved.

Legal & DMCA: Matt's Music Page has been providing lyrics and tabs in a legal way, paying royalties each year to a few organizations. Then, all lyrics and tabs were removed from the site. Now, there's a new owner to the site, which purchased it August 26, 2014, and he is in negotiation to obtain licensing from BMI at the moment. If you have a specific DMCA request -- please do not hesitate to contact me via the contact button on top. I will do my very best to keep this site fully legal.

Get our toolbar!

 

EL PRINCIPE HECHO A MANO DE TABACOS COROJO SELECTION CIGAR BOX GUITAR
$0.99
EL PRINCIPE HECHO A MANO  DE TABACOS COROJO SELECTION CIGAR BOX GUITAR picture


Turtle playing Guitar Trinket Box by Keren Kopal Faberge Egg Austrian Crystal
$0.99
Turtle playing Guitar Trinket Box by Keren Kopal Faberge Egg Austrian Crystal picture


Metal Guitar Pick Necklace JEB BUSH 2016 presidential candidate george campaign
$9.0
Metal Guitar Pick Necklace JEB BUSH 2016 presidential candidate george campaign picture


Turtle playing Guitar Trinket Box by Keren Kopal Faberge Egg Austrian Crystal
$0.99
Turtle playing Guitar Trinket Box by Keren Kopal Faberge Egg Austrian Crystal picture


TR- WELLS FARGO GUITAR BACK STAGE KEY CHAIN #41567 (MINT IN PACKAGE)
$65.0
TR- WELLS FARGO GUITAR BACK STAGE KEY CHAIN #41567   (MINT IN PACKAGE) picture