Your One-Stop Source For
Music Lyrics
Bass and Guitar Tabs
and More...
Music Lyrics Bass and Guitar Tabs

 

The Tabs Are Below

Learn To Read Tab
Chords Handbook
Corrections & Additions
Get Official Tab
RATM tabs @ 911Tabs

 

Bombtrack by Rage against the machine

tabbed by Tom Kenrick (kingcruiser55@hotmail.com)

sorry paul fivey but you got it wrong.

 

G||-------------------------------0-|----------------------------------|

D||-----2-0---0---------2-0---0-2---|----2-0---0---------2-0---0-------|

A||---------2---2-0---------2-------|--------2---2-0---------2---2-----|

E||---0-------------3-0-------------|--0-------------3-0-----------3-2-|

 

 

 

---------------------------|---------------------------|

----2-0---0----------------|--------4-------------4-2--|

--------2---2-0------------|---------------------------|

--0-------------3-0--------|--0--2----0--2--0--2-------|

 

 

 

---------------------------|-------------------------|

--------4---------6--5--4--|--------4-----------6----|

------------------4--3--2--|--------------------4----|

--0--2-----0-2-0-----------|--0--2-----0--2--0-------|

 

 

 

--------------------------|-----------------------------|

--------------------------|-----------------4-2---------|

--------------------------|---------------------4-3-2---|

--2--2--0--2--2--2--2--5b-|--2--2--0--2--0------------5-|

 

 

 

----------------------------------|----------------------------------|

----------------------------------|----------------------------------|

----------------------------------|------------------7-7-7-7-7-7-7-7\|

--0-0-0-0-0-0-0-0-0-0-0-0-0-0-0-0-|--0-0-0-0-0-0-0-0-----------------|

 

 

 

---------------------------------|---------------------------|

---------------------------------|--------4---------6--5--4--|

---------------------4p0-3p0-2p0-|------------------4--3--2--|

--2p0-2p0-5b-2p0-2p0-------------|--0--2----0--2--0----------|

 

 

 

---------------------|--||

--4----3----2--------|--||

--2----1----0--------|--||

---------------------|--||

 

Return to my to my Rage bass tabs page

The Tablature is Copyright its respective owners.

Sign Up For My Newsletter
Subscribe | Unsubscribe

Site Map | Disclaimer | Privacy Policy | Media Kit | Submissions/Corrections

Website © 2000-2014 mattsmusicpage.com. All rights reserved.

Legal & DMCA: Matt's Music Page has been providing lyrics and tabs in a legal way, paying royalties each year to a few organizations. Then, all lyrics and tabs were removed from the site. Now, there's a new owner to the site, which purchased it August 26, 2014, and he is in negotiation to obtain licensing from BMI at the moment. If you have a specific DMCA request -- please do not hesitate to contact me via the contact button on top. I will do my very best to keep this site fully legal.

Get our toolbar!

 

VINTAGE SORRENTO MUSIC JEWELRY BOX
$45.0
VINTAGE SORRENTO MUSIC JEWELRY BOX picture


VINTAGE LACQUERED MUSIC BOX JAPAN
$25.99
VINTAGE LACQUERED MUSIC BOX JAPAN picture


Vintage Kehlsteinhaus Bavaria Germany Colorscope Cow Bell View Master Music Box
$8.99
Vintage Kehlsteinhaus Bavaria Germany Colorscope Cow Bell View Master Music Box picture


VINTAGE SCHMIDT Signed Collectible Musical Turning Clown
$9.99
VINTAGE  SCHMIDT Signed Collectible Musical Turning Clown picture


Vintage - Linen - Postcard - Stage - Radio City Music Hall - New York City
$3.75
Vintage - Linen - Postcard - Stage - Radio City Music Hall - New York City   picture