Your One-Stop Source For
Music Lyrics
Bass and Guitar Tabs
and More...
Music Lyrics Bass and Guitar Tabs

 

The Tabs Are Below

Learn To Read Tab
Chords Handbook
Corrections & Additions
Get Official Tab
Radiohead tabs @ 911Tabs

* RADIOHEAD - Maquiladora

* High & Dry CD1

* Guitar tab by Hoi (live)

Victor

 

 

NOTE: GTR 3 PLAY THE CRD PROGRESSION THRU'OUT THE WHOLE SONG

 

INTRO :

 

GTR 1

 

E Esus4 E Esus4 E Esus4 E Esus4

 

1 & A & 2 & A & 3 & A & 4 & A & 1 & A & 2 & A & 3 & A & 4 & A &

e -----------------------------------|--------------------------------|

B -----------------------------------|--------------------------------|

G -----------------------------------|--------------------------------|

D -----------------------------------|--------------------------------|

A -----------------------------------|--------------------------------|

E ---0-----4-5---4-0---0---4-5---4---|0-----4-5---4-0---0---4-5---4---|

 

(PLAY TWICE)

 

GTR 2

 

1 & A & 2 & A & 3 & A & 4 & A & 1 & A & 2 & A & 3 & A & 4 & A &

e -----------------------------------|--------------------------------|

B-----------------------------------|--------------4---5-5-4-5-5-4---|

G -----------------------------------|------------6b8-----------------|

D -----------------------------------|--------------------------------|

A -----------------------------------|--------------------------------|

E -----------------------------------|--------------------------------|

 

1 & A & 2 & A & 3 & A & 4 & A & 1 & A & 2 & A & 3 & A & 4 & A &

e -----------------------------------|--------------------------------|

B ---4-------------------------------|4---5-5-4-5-5-4-4---------------|

G (6b8)------------------------------|-------------(6b8)--------------|

D -----------------------------------|--------------------------------|

A -----------------------------------|--------------------------------|

E -----------------------------------|--------------------------------|

 

***********************************************************************

VERSE 1 :

 

GTR 1

 

E Esus4 E Esus4 E Esus4 E Esus4

 

1 & A & 2 & A & 3 & A & 4 & A & 1 & A & 2 & A & 3 & A & 4 & A &

e -----------------------------------|--------------------------------|

B -----------------------------------|--------------------------------|

G -----------------------------------|--------------------------------|

D -----------------------------------|--------------------------------|

A -----------------------------------|--------------------------------|

E ---0-----4-5---4-0---0---4-5---4---|0-----4-5---4-0---0---4-5---4---|

 

E Esus4 E Esus4 E Esus4 E Esus4

 

1 & A & 2 & A & 3 & A & 4 & A & 1 & A & 2 & A & 3 & A & 4 & A &

e -----------------------------------|--------------------------------|

B -----------------------------------|--------------------------------|

G -----------------------------------|--------------------------------|

D -----------------------------------|--------------------------------|

A -----------------------------------|--------------------------------|

E ---0-----4-5---4-0---0---4-5---4---|0-----4-5---4-0---0---4-5---4---|

 

B B B Bsus4 B B B B

 

1 & A & 2 & A & 3 & A & 4 & A & 1 & A & 2 & A & 3 & A & 4 & A &

e ---X-------X-------X-------X---X---|X-------X-------X-------X-------|

B ---4-------4-------4-------5---5---|4-------4-------4-------4-------|

G ---4-------4-------4-------4---4---|4-------4-------4-------4-------|

D ---4-------4-------4-------4---4---|4-------4-------4-------4-------|

A ---2-------2-------2-------2---2---|2-------2-------2-------2-------|

E ---X-------X-------X-------X---X---|X-------X-------X-------X-------|

 

GTR 2

 

1 & A & 2 & A & 3 & A & 4 & A & 1 & A & 2 & A & 3 & A & 4 & A &

e ---X-------X-------X---------------|--------------------------------|

B ---4-------4-------4---------------|--------------11-11-11-11-11-11-|

G ---4-------4-------4------/9---9---|8-------8-----(play irregularly)|

D ---4-------4-------4---------------|--------------------------------|

A ---2-------2-------2---------------|--------------------------------|

E ---X-------X-------X---------------|--------------------------------|

 

***********************************************************************

 

GTR 1

 

E Esus4 E Esus4 E Esus4 E Esus4

 

1 & A & 2 & A & 3 & A & 4 & A & 1 & A & 2 & A & 3 & A & 4 & A &

e -----------------------------------|--------------------------------|

B -----------------------------------|--------------------------------|

G -----------------------------------|--------------------------------|

D -----------------------------------|--------------------------------|

A -----------------------------------|--------------------------------|

E ---0-----4-5---4-0---0---4-5---4---|0-----4-5---4-0---0---4-5---4---|

 

GTR 2

 

1 & A & 2 & A & 3 & A & 4 & A & 1 & A & 2 & A & 3 & A & 4 & A &

e -----------------------------------|----------------X-X-X-X-X-X-X-X-|

B -----------------------------------|----------------X-X-X-X-X-X-X-X-|

G -----------------------------------|----------------X-X-X-X-X-X-X-X-|

D -----------------------------------|----------------X-X-X-X-X-X-X-X-|

A -----------------------------------|----------------X-X-X-X-X-X-X-X-|

E ---0-----4-5---4-0---0---4-5---4---|0-----4-5---4-0-X-X-X-X-X-X-X-X-|

 

***********************************************************************

GTR 1 (CLEAR & MUTE)

 

GTR 2 (CLEAR)

 

C#m C#m C#m C#m E E E E

 

1 & A & 2 & A & 3 & A & 4 & A & 1 & A & 2 & A & 3 & A & 4 & A &

e ---X-X-X-X-X-X-X-X-X-754-----------|X-X-X-X-X-X-X-X-X-754-----------|

B ---X-X-X-X-X-X-X-X-X-----7-5-------|X-X-X-X-X-X-X-X-X-----7-5-------|

G ---6-X-6-X-6-X-6-X-6---------6-4---|4-X-4-X-4-X-4-X-4---------6-4---|

D ---6-X-6-X-6-X-6-X-6-------------6-|6-X-6-X-6-X-6-X-6---------------|

A ---4-X-4-X-4-X-4-X-4---------------|7-X-7-X-7-X-7-X-7-------------6-|

E ---X-X-X-X-X-X-X-X-X---------------|X-X-X-X-X-X-X-X-X---------------|

 

C#m C#m C#m C#m E E E E

 

1 & A & 2 & A & 3 & A & 4 & A & 1 & A & 2 & A & 3 & A & 4 & A &

e ---X-X-X-X-X-X-X-X-X-754-----------|X-X-X-X-X-X-X-X-X-754-----------|

B ---X-X-X-X-X-X-X-X-X-----7-5-------|X-X-X-X-X-X-X-X-X-----7-5-------|

G ---6-X-6-X-6-X-6-X-6---------6-4---|4-X-4-X-4-X-4-X-4---------6-4---|

D ---6-X-6-X-6-X-6-X-6-------------6-|6-X-6-X-6-X-6-X-6---------------|

A ---4-X-4-X-4-X-4-X-4---------------|7-X-7-X-7-X-7-X-7-------------6-|

E ---X-X-X-X-X-X-X-X-X---------------|X-X-X-X-X-X-X-X-X---------------|

 

***********************************************************************

GTR 1 (W/DIST)

 

C#m C#m C#m C#m E E E E

 

1 & A & 2 & A & 3 & A & 4 & A & 1 & A & 2 & A & 3 & A & 4 & A &

e -----------------------------------|--------------------------------|

B -----------------------------------|--------------------------------|

G -----------------------------------|--------------------------------|

D -----------------------------------|--------------------------------|

A ---7-------10------7-------14------|11------------------------------|

E -----------------------------------|--------------------------------|

 

GTR 2

 

1 & A & 2 & A & 3 & A & 4 & A & 1 & A & 2 & A & 3 & A & 4 & A &

e -------0-------0-------0-------0---|----0-------0-------0-------0---|

B -----4---4---4---4---4---4---4---4-|--3---3---3---3---3---3---3---3-|

G ---6-------6-------6-------6-------|5-------5-------5-------5-------|

D -----------------------------------|--------------------------------|

A -----------------------------------|--------------------------------|

E -----------------------------------|--------------------------------|

 

***********************************************************************

GTR 1

 

C#m C#m C#m C#m Cm Cm Bm Bbm

 

1 & A & 2 & A & 3 & A & 4 & A & 1 & A & 2 & A & 3 & A & 4 & A &

e ---4-4-4-4-------------------------|--------3-------2-------1-------|

B ---5-5-5-5-------------------------|--------4-------3-------2-------|

G ---6-6-6-6-------------------------|--------5-------4-------3-------|

D ---6-6-6-6-------------------------|--------5-------4-------3-------|

A ---4-4-4-4-------------------------|--------3-------2-------1-------|

E ---X-X-X-X-------------------------|--------X-------X-------X-------|

 

GTR 2

 

1 & A & 2 & A & 3 & A & 4 & A & 1 & A & 2 & A & 3 & A & 4 & A &

e -------0-------0-------0-------0---|----0---------------------------|

B -----4---4---4---4---4---4---4---4-|--3---3-------------------------|

G ---6-------6-------6-------6-------|5-------5-------7-------12b-----|

D -----------------------------------|-------(w/dist)-----------------|

A -----------------------------------|--------------------------------|

E -----------------------------------|--------------------------------|

 

***********************************************************************

INTERLUDE :

 

GTR 1

 

E Esus4 E Esus4 E Esus4 E Esus4

 

1 & A & 2 & A & 3 & A & 4 & A & 1 & A & 2 & A & 3 & A & 4 & A &

e -----------------------------------|--------------------------------|

B -----------------------------------|--------------------------------|

G -----------------------------------|--------------------------------|

D -----------------------------------|--------------------------------|

A -----------------------------------|--------------------------------|

E ---0-----4-5---4-0---0---4-5---4---|0-----4-5---4-0---0---4-5---4---|

 

 

GTR 2

 

1 & A & 2 & A & 3 & A & 4 & A & 1 & A & 2 & A & 3 & A & 4 & A &

e -----------------------------------|--------------------------------|

B -----------------------------------|--------------4---5-5-4-5-5-4---|

G -----------------------------------|------------6b8-----------------|

D -----------------------------------|--------------------------------|

A -----------------------------------|--------------------------------|

E -----------------------------------|--------------------------------|

 

***********************************************************************

VERSE 2:

 

GTR 2

 

E Esus4 E Esus4 E Esus4 E Esus4

 

1 & A & 2 & A & 3 & A & 4 & A & 1 & A & 2 & A & 3 & A & 4 & A &

e -----------------------------------|--------------------------------|

B ---4(sustained for four bars)......|................................|

G -----------------------------------|--------------------------------|

D -----------------------------------|--------------------------------|

A -----------------------------------|--------------------------------|

E -----------------------------------|--------------------------------|

 

GTR 1

 

E Esus4 E Esus4 E Esus4 E Esus4

 

1 & A & 2 & A & 3 & A & 4 & A & 1 & A & 2 & A & 3 & A & 4 & A &

e -----------------------------------|--------------------------------|

B -----------------------------------|--------------------------------|

G -----------------------------------|--------------------------------|

D -----------------------------------|--------------------------------|

A -----------------------------------|--------------------------------|

E ---0-----4-5---4-0---0---4-5---4---|0-----4-5---4-0---0---4-5---4---|

 

GTR 2

 

1 & A & 2 & A & 3 & A & 4 & A & 1 & A & 2 & A & 3 & A & 4 & A &

e -----------------------------------|----------------X-X-X-X-X-X-X-X-|

B---................................|................X-X-X-X-X-X-X-X-|

G -----------------------------------|----------------X-X-X-X-X-X-X-X-|

D -----------------------------------|----------------X-X-X-X-X-X-X-X-|

A -----------------------------------|----------------X-X-X-X-X-X-X-X-|

E -----------------------------------|----------------X-X-X-X-X-X-X-X-|

 

***********************************************************************

GTR 1

 

B B B Bsus4 B B B B

 

1 & A & 2 & A & 3 & A & 4 & A & 1 & A & 2 & A & 3 & A & 4 & A &

e ---X-------X-------X-------X---X---|X-------X-------X-------X-------|

B ---4-------4-------4-------5---5---|4-------4-------4-------4-------|

G ---4-------4-------4-------4---4---|4-------4-------4-------4-------|

D ---4-------4-------4-------4---4---|4-------4-------4-------4-------|

A ---2-------2-------2-------2---2---|2-------2-------2-------2-------|

E ---X-------X-------X-------X---X---|X-------X-------X-------X-------|

 

GTR 2

 

1 & A & 2 & A & 3 & A & 4 & A & 1 & A & 2 & A & 3 & A & 4 & A &

e ---X-------X-------X---------------|--------------------------------|

B ---4-------4-------4---------------|--------------11-11-11-11-11-11-|

G ---4-------4-------4------/9---9---|8-------8-----(play irregularly)|

D ---4-------4-------4---------------|--------------------------------|

A ---2-------2-------2---------------|--------------------------------|

E ---X-------X-------X---------------|--------------------------------|

 

***********************************************************************

GTR 1

 

E Esus4 E Esus4 E Esus4 E Esus4

 

1 & A & 2 & A & 3 & A & 4 & A & 1 & A & 2 & A & 3 & A & 4 & A &

e -----------------------------------|--------------------------------|

B -----------------------------------|--------------------------------|

G -----------------------------------|--------------------------------|

D -----------------------------------|--------------------------------|

A -----------------------------------|--------------------------------|

E ---0-----4-5---4-0---0---4-5---4---|0-----4-5---4-0---0---4-5---4---|

 

GTR 2

 

1 & A & 2 & A & 3 & A & 4 & A & 1 & A & 2 & A & 3 & A & 4 & A &

e -----------------------------------|----------------X-X-X-X-X-X-X-X-|

B -----------------------------------|----------------X-X-X-X-X-X-X-X-|

G -----------------------------------|----------------X-X-X-X-X-X-X-X-|

D -----------------------------------|----------------X-X-X-X-X-X-X-X-|

A -----------------------------------|----------------X-X-X-X-X-X-X-X-|

E ---0-----4-5---4-0---0---4-5---4---|0-----4-5---4-0-X-X-X-X-X-X-X-X-|

 

***********************************************************************

GTR 1 (CLEAR & MUTE)

 

GTR 2 (CLEAR)

 

C#m C#m C#m C#m E E E E

 

1 & A & 2 & A & 3 & A & 4 & A & 1 & A & 2 & A & 3 & A & 4 & A &

e ---X-X-X-X-X-X-X-X-X-754-----------|X-X-X-X-X-X-X-X-X-754-----------|

B ---X-X-X-X-X-X-X-X-X-----7-5-------|X-X-X-X-X-X-X-X-X-----7-5-------|

G ---6-X-6-X-6-X-6-X-6---------6-4---|4-X-4-X-4-X-4-X-4---------6-4---|

D ---6-X-6-X-6-X-6-X-6-------------6-|6-X-6-X-6-X-6-X-6---------------|

A ---4-X-4-X-4-X-4-X-4---------------|7-X-7-X-7-X-7-X-7-------------6-|

E ---X-X-X-X-X-X-X-X-X---------------|X-X-X-X-X-X-X-X-X---------------|

 

C#m C#m C#m C#m E E E E

 

1 & A & 2 & A & 3 & A & 4 & A & 1 & A & 2 & A & 3 & A & 4 & A &

e ---X-X-X-X-X-X-X-X-X-754-----------|X-X-X-X-X-X-X-X-X-754-----------|

B ---X-X-X-X-X-X-X-X-X-----7-5-------|X-X-X-X-X-X-X-X-X-----7-5-------|

G ---6-X-6-X-6-X-6-X-6---------6-4---|4-X-4-X-4-X-4-X-4---------6-4---|

D ---6-X-6-X-6-X-6-X-6-------------6-|6-X-6-X-6-X-6-X-6---------------|

A ---4-X-4-X-4-X-4-X-4---------------|7-X-7-X-7-X-7-X-7-------------6-|

E ---X-X-X-X-X-X-X-X-X---------------|X-X-X-X-X-X-X-X-X---------------|

 

***********************************************************************

GTR 1 (W/DIST)

 

C#m C#m C#m C#m E E E E

 

1 & A & 2 & A & 3 & A & 4 & A & 1 & A & 2 & A & 3 & A & 4 & A &

e -----------------------------------|--------------------------------|

B -----------------------------------|--------------------------------|

G -----------------------------------|--------------------------------|

D -----------------------------------|--------------------------------|

A ---7-------10------7-------14------|11------------------------------|

E -----------------------------------|--------------------------------|

 

GTR 2

 

1 & A & 2 & A & 3 & A & 4 & A & 1 & A & 2 & A & 3 & A & 4 & A &

e -------0-------0-------0-------0---|----0-------0-------0-------0---|

B -----4---4---4---4---4---4---4---4-|--3---3---3---3---3---3---3---3-|

G ---6-------6-------6-------6-------|5-------5-------5-------5-------|

D -----------------------------------|--------------------------------|

A -----------------------------------|--------------------------------|

E -----------------------------------|--------------------------------|

 

***********************************************************************

GTR 1

 

C#m C#m C#m C#m Cm Cm Bm Bbm

 

1 & A & 2 & A & 3 & A & 4 & A & 1 & A & 2 & A & 3 & A & 4 & A &

e ---4-4-4-4-------------------------|--------3-------2-------1-------|

B ---5-5-5-5-------------------------|--------4-------3-------2-------|

G ---6-6-6-6-------------------------|--------5-------4-------3-------|

D ---6-6-6-6-------------------------|--------5-------4-------3-------|

A ---4-4-4-4-------------------------|--------3-------2-------1-------|

E ---X-X-X-X-------------------------|--------X-------X-------X-------|

 

GTR 2

 

1 & A & 2 & A & 3 & A & 4 & A & 1 & A & 2 & A & 3 & A & 4 & A &

e -------0-------0-------0-------0---|----0---------------------------|

B -----4---4---4---4---4---4---4---4-|--3---3-------------------------|

G ---6-------6-------6-------6-------|5-------5-------7-------12b-----|

D -----------------------------------|-------(w/dist)-----------------|

A -----------------------------------|--------------------------------|

E -----------------------------------|--------------------------------|

 

***********************************************************************

SOLO :

 

GTR 1

 

E Esus4 E Esus4 E Esus4 E Esus4

 

1 & A & 2 & A & 3 & A & 4 & A & 1 & A & 2 & A & 3 & A & 4 & A &

e -----------------------------------|--------------------------------|

B -----------------------------------|--------------------------------|

G -----------------------------------|--------------------------------|

D -----------------------------------|--------------------------------|

A -----------------------------------|--------------------------------|

E ---0-----4-5---4-0---0---4-5---4---|0-----4-5---4-0---0---4-5---4---|

 

GTR 2

 

1 & A & 2 & A & 3 & A & 4 & A & 1 & A & 2 & A & 3 & A & 4 & A &

e -----------------------------------|--------------------------------|

B -----------------------------------|----------------4-4-4-4-4--4--4-|

G -----------------------------------|-----------------------(TRIPLET)|

D -----------------------------------|--------------------------------|

A -----------------------------------|--------------------------------|

E -----------------------------------|--------------------------------|

 

***********************************************************************

GTR 1

 

C#m C#m C#m C#m Cm Cm Cm Cm

 

1 & A & 2 & A & 3 & A & 4 & A & 1 & A & 2 & A & 3 & A & 4 & A &

e ---4-4-4-4-------------------------|3-3-3-3-------------------------|

B ---5-5-5-5-------------------------|4-4-4-4-------------------------|

G ---6-6-6-6-------------------------|5-5-5-5-------------------------|

D ---6-6-6-6-------------------------|5-5-5-5-------------------------|

A ---4-4-4-4-------------------------|3-3-3-3-------------------------|

E ---X-X-X-X-------------------------|X-X-X-X-------------------------|

 

GTR 2

 

1 & A & 2 & A & 3 & A & 4 & A & 1 & A & 2 & A & 3 & A & 4 & A &

e -----------------------------------|--------------------------------|

B ---5p4-------------------------4-5-|7-7-----5-------4-4---3-3---4-5-|

G --(6B8)----------------64--4-6-----|--------------------------------|

D -------------------------6---------|--------------------------------|

A -----------------------------------|--------------------------------|

E -----------------------------------|--------------------------------|

 

***********************************************************************

GTR 1

 

C#m C#m C#m C#m Cm Cm Cm Cm

 

1 & A & 2 & A & 3 & A & 4 & A & 1 & A & 2 & A & 3 & A & 4 & A &

e ---4-4-4-4-------------------------|3-3-3-3-------------------------|

B ---5-5-5-5-------------------------|4-4-4-4-------------------------|

G ---6-6-6-6-------------------------|5-5-5-5-------------------------|

D ---6-6-6-6-------------------------|5-5-5-5-------------------------|

A ---4-4-4-4-------------------------|3-3-3-3-------------------------|

E ---X-X-X-X-------------------------|X-X-X-X-------------------------|

 

GTR 2

 

1 & A & 2 & A & 3 & A & 4 & A & 1 & A & 2 & A & 3 & A & 4 & A &

e -----------------------------------|--------------------------------|

B ---7--5--7-5--4--5-7--8--4-5--7--8-|4-5-758*--4-5-758*~-8-b-7-5-----|

G --(triplet)-------(triplet)--------|--------------------------------|

D ----------(triplet)-------(triplet)|--------------------------------|

A -----------------------------------|--------------------------------|

E -----------------------------------|--------------------------------|

 

*7b8

 

***********************************************************************

GTR 1

 

C#m C#m C#m C#m Cm Cm Cm Cm

 

1 & A & 2 & A & 3 & A & 4 & A & 1 & A & 2 & A & 3 & A & 4 & A &

e ---4-4-4-4-------------------4-----|3-3-3-3-------------------3-----|

B ---5-5-5-5-------------------5-----|4-4-4-4-------------------4-----|

G ---6-6-6-6-------------------6-----|5-5-5-5-------------------5-----|

D ---6-6-6-6-------------------6-----|5-5-5-5-------------------5-----|

A ---4-4-4-4-------------------4-----|3-3-3-3-------------------3-----|

E ---X-X-X-X-------------------X-----|X-X-X-X-------------------X-----|

 

GTR 2

 

1 & A & 2 & A & 3 & A & 4 & A & 1 & A & 2 & A & 3 & A & 4 & A &

e -----------------------------------|--------------------------------|

B -----------------------------------|--------------------------------|

G -----------------------------------|--------------------------------|

D ---2-2-2-2-----4p2-4b6b5~~---------|2-2-2-2-----4p2-4b6b5~~---------|

A ---4-4-4-4-------------------------|3-3-3-3-------------------------|

E -----------------------------------|--------------------------------|

 

***********************************************************************

GTR 1

 

C#m C#m C#m C#m Cm Cm Bm Bbm

 

1 & A & 2 & A & 3 & A & 4 & A & 1 & A & 2 & A & 3 & A & 4 & A &

e ---4-4-4-4-------------------------|--------3-------2-------1-------|

B ---5-5-5-5-------------------------|--------4-------3-------2-------|

G ---6-6-6-6-------------------------|--------5-------4-------3-------|

D ---6-6-6-6-------------------------|--------5-------4-------3-------|

A ---4-4-4-4-------------------------|--------3-------2-------1-------|

E ---X-X-X-X-------------------------|--------X-------X-------X-------|

 

GTR 2

 

1 & A & 2 & A & 3 & A & 4 & A & 1 & A & 2 & A & 3 & A & 4 & A &

e -------0-------0-------0-------0---|----0---------------------------|

B -----4---4---4---4---4---4---4---4-|--3---3-------------------------|

G ---6-------6-------6-------6-------|5-------5-------7-------12b-----|

D -----------------------------------|--------------------------------|

A -----------------------------------|--------------------------------|

E -----------------------------------|--------------------------------|

 

***********************************************************************

OUTRO:

 

GTR 1

 

E Esus4 E Esus4 E Esus4 E Esus4

 

1 & A & 2 & A & 3 & A & 4 & A & 1 & A & 2 & A & 3 & A & 4 & A &

e -----------------------------------|--------------------------------|

B -----------------------------------|--------------------------------|

G -----------------------------------|--------------------------------|

D -----------------------------------|--------------------------------|

A -----------------------------------|--------------------------------|

E ---0-----4-5---4-0---0---4-5---4---|0-----4-5---4-0---0---4-5---4---|

 

(PLAY TWICE)

 

GTR 2

 

1 & A & 2 & A & 3 & A & 4 & A & 1 & A & 2 & A & 3 & A & 4 & A &

e -----------------------------------|--------------------------------|

B -----------------------------------|--------------4---5-5-4-5-5-4---|

G -----------------------------------|------------6b8-----------------|

D -----------------------------------|--------------------------------|

A -----------------------------------|--------------------------------|

E -----------------------------------|--------------------------------|

 

1 & A & 2 & A & 3 & A & 4 & A & 1 & A & 2 & A & 3 & A & 4 & A &

e -----------------------------------|--------------------------------|

B ---4-------------------------------|4---5-5-4-5-5-4-4---------------|

G (6b8)------------------------------|-------------(6b8)--------------|

D -----------------------------------|--------------------------------|

A -----------------------------------|--------------------------------|

E -----------------------------------|--------------------------------|

 

Lyrics:

 

Here it comes, Here it comes,

I can feel the hills exploding,

Exploding gracefully,

Burning up the freeway

Here it comes

Grass is green at the edge of the bubble.

Beautiful kids into beautiful trouble

And it seems to fall out of the sky and come down on you.

Oh baby burn.....

Fast Toyota

Burns rubber

Useless rockers

From England

Good times,

Had by all

Just swallow your guilt and your conscience.....

Blue and white birds stepping hard on the pedal

Interstate five runs staright down the middle,

And it seems to fall out of the sky

 

---------------------------------------------------------------------------------------------

 

MAQUILADORA

 

< Guitar 1

< ^^^^^^^^^^^^^^^^^^^^^^^^

< 0 - 0 - 0 - 0 - 0 - 0 - 0 - 0 - 0 - 0 - 0 - 0 - 0 - 0

< 0 - 0 - 0 - 0 - 0 - 0 - 0 - 0 - 0 - 0 - 0 - 0 - 0 - 0

< 1 - 1 - 2 - 1 - 1 - 1 - 1 - 2 - 1 - 1 - 1 - 2 - 1 - 1

< 2 - 0 - 2 - 0 - 2 - 2 - 0 - 2 - 0 - 2 - 0 - 2 - 0 - 2

< 2 - - - 0 - - - 2 - 2 - - - 0 - - - 2 - - - 0 - - - 2

< 0 - - - - - - - 0 - 0 - - - - - - - 0 - - - - - - - 0

<

<

< Guitar 2

< ^^^^^^^^^^^

< - - - - - - - - - - - - - - - - - - - - - - - - - - - 4 5 4 5 4 5 4

< - - - - - - - - - - - - - - - - - - - - - - - - - - - - - - - - - -

< - - - - - - - - - - - - - - - - - - - - - - - - - - - - - - - - - -

< - - - - - - - - - - - - - - - - - - - - - - - - - - - - - - - - - -

< - - - - - - - - - - - - - - - - - - - - - - - - - - - - - - - - - -

< - - - - - - - - - - - - - - - - - - - - - - - - - - - - - - - - - -

 

 

< Guitar 1

< ^^^^^^^^^^^^^^^^^^^^^^^^^

< 0 - 0 - 0 - 0 - 0 - 0 - 0 - 0 - 0 - 0 - 0 - 0 - 0 - 0

< 0 - 0 - 0 - 0 - 0 - 0 - 0 - 0 - 0 - 0 - 0 - 0 - 0 - 0

< 1 - 1 - 2 - 1 - 1 - 1 - 1 - 2 - 1 - 1 - 1 - 2 - 1 - 1

< 2 - 0 - 2 - 0 - 2 - 2 - 0 - 2 - 0 - 2 - 0 - 2 - 0 - 2

< 2 - - - 0 - - - 2 - 2 - - - 0 - - - 2 - - - 0 - - - 2

< 0 - - - - - - - 0 - 0 - - - - - - - 0 - - - - - - - 0

<

<

< Guitar 2

< ^^^^^^^^^^^^^^^^^^^^^^^^^

< - - - - - - - - - - - - - - - - - - 4 5 - 4 5 - 4 - 5

< - - - - - - - - - - - - - - - - - - - - - - - - - - -

< - - - - - - - - - - - - - - - - - - - - - - - - - - -

< - - - - - - - - - - - - - - - - - - - - - - - - - - -

< - - - - - - - - - - - - - - - - - - - - - - - - - - -

< - - - - - - - - - - - - - - - - - - - - - - - - - - -

<

< Here it

 

 

< guitar 1

<

< 0 - 0 - 0 - 0 - 0 - 0 - 0 - 0 - 0 - 0 - 0 - 0 - 0 - 0 - 0 - 0 - 0 - 0

< 0 - 0 - 0 - 0 - 0 - 0 - 0 - 0 - 0 - 0 - 0 - 0 - 0 - 0 - 0 - 0 - 0 - 0

< 1 - 1 - 2 - 1 - 1 - 1 - 1 - 2 - 1 - 1 - 1 - 2 - 1 - 1 - 1 - 1 - 2 - 1

< 2 - 0 - 2 - 0 - 2 - 2 - 0 - 2 - 0 - 2 - 0 - 2 - 0 - 2 - 2 - 0 - 2 - 0

< 2 - - - 0 - - - 2 - 2 - - - 0 - - - 2 - - - 0 - - - 2 - 2 - - - 0 - -

< 0 - - - - - - - 0 - 0 - - - - - - - 0 - - - - - - - 0 - 0 - - - - - -

<

< comes here it comes i can feel the

 

 

 

< guitar 1

<

< 0 - 0 - 0 - 0 - 0 - 0 - 0 - 0 - 0 - 0 - 0 - 0 - 0 - 0 - 0 - 0 - 0 - 0

< 0 - 0 - 0 - 0 - 0 - 0 - 0 - 0 - 0 - 0 - 0 - 0 - 0 - 0 - 0 - 0 - 0 - 0

< 1 - 1 - 2 - 1 - 1 - 1 - 1 - 2 - 1 - 1 - 1 - 2 - 1 - 1 - 1 - 1 - 2 - 1

< 2 - 0 - 2 - 0 - 2 - 2 - 0 - 2 - 0 - 2 - 0 - 2 - 0 - 2 - 2 - 0 - 2 - 0

< 2 - - - 0 - - - 2 - 2 - - - 0 - - - 2 - - - 0 - - - 2 - 2 - - - 0 - -

< 0 - - - - - - - 0 - 0 - - - - - - - 0 - - - - - - - 0 - 0 - - - - - -

<

< hills ex- plo- ding exploding

 

 

 

< guitar 1

<

< 2 - 0 - 4 - 2 2 - 0 - 4 - 2

< 2 - 2 - 4 - 2 2 - 2 - 4 - 2

< 4 - 2 - 4 - 2 4 - 2 - 4 - 2

< 4 - 2 - 6 - 4 4 - 2 - 6 - 4

< 2 - 0 - 6 - 4 2 - 0 - 6 - 4

< - - - - 4 - 2 - - - - 4 - 2

<

<

< guitar 2

<

< - - - - - - - - - - - - - - - - - 6 7 6 7 6 7 6

< 4^^^^^^^^^^^^^^ 4 - 5 - - - 4^^^^ - - - - - - -

< - - - - - - - - - - - - - - - - - - - - - - - -

< - - - - - - - - - - - - - - - - - - - - - - - -

< - - - - - - - - - - - - - - - - - - - - - - - -

< - - - - - - - - - - - - - - - - - - - - - - - -

<

< gracefully, burning up the freeway here it

 

 

< guitar 1

<

< 0 - 0 - 0 - 0 - 0 - 0 - 0 - 0 - 0 - 0 - 0 - 0 - 0 - 0 - 0 - 0 - 0 - 0

< 0 - 0 - 0 - 0 - 0 - 0 - 0 - 0 - 0 - 0 - 0 - 0 - 0 - 0 - 0 - 0 - 0 - 0

< 1 - 1 - 2 - 1 - 1 - 1 - 1 - 2 - 1 - 1 - 1 - 2 - 1 - 1 - 1 - 1 - 2 - 1

< 2 - 0 - 2 - 0 - 2 - 2 - 0 - 2 - 0 - 2 - 0 - 2 - 0 - 2 - 2 - 0 - 2 - 0

< 2 - - - 0 - - - 2 - 2 - - - 0 - - - 2 - - - 0 - - - 2 - 2 - - - 0 - -

< 0 - - - - - - - 0 - 0 - - - - - - - 0 - - - - - - - 0 - 0 - - - - - -

<

<

< guitar 2

<

< - - - - - - - - - - -

< - - - - - - - - - - -

< 5^^^^^^^^^^^^^^^^^^^^^^^^^^^^^^^^^^^^^^^^^^^^^^^^^^^^^

< - - - - - - - - - - -

< - - - - - - - - - - -

< - - - - - - - - - - -

<

< comes.

 

 

< guitar 1

<

< - - - - - - - - - - - - - - - - - - - - - - -

< 4 4 4 4 - 4 4 4 4 - 4 4 4 4 - 4 2 2 - 7 7 7 7

< 6 6 6 6 - 6 6 6 6 - 6 6 6 6 - 6 4 4 - 9 9 9 9

< 6 6 6 6 - 6 6 6 6 - 6 6 6 6 - 6 4 4 - 9 9 9 9

< 4 4 4 4 - 4 4 4 4 - 4 4 4 4 - 4 2 2 - 7 7 7 7

< - - - - - - - - - - - - - - - - - - - - - - -

<

<

< guitar 2

<

< - - - - - - - - - - - - 7 - - -- - -- - --

< - - - - - - - - - - - - - 9 - -- - -- - --

< - - - - - - - - - - - - - - 9 -- - -- - --

< - - - - - - - - - - - - - - - 11 9 -- - --

< - - - - - - - - - - - - - - - -- - 11 9 --

< - - - - - - - - - - - - - - - -- - -- - 12

<

< grass is green at the edge of the bubble,

 

 

< guitar 1

<

< - - - - - - - - - - - - - - - - - - - - - - - - - - - - - - -

< 7 7 7 7 - 7 7 7 7 - 7 2 2 4 4 4 4 - 4 4 4 4 - 4 4 4 4 - 4 2 2

< 9 9 9 9 - 9 9 9 9 - 9 4 4 6 6 6 6 - 6 6 6 6 - 6 6 6 6 - 6 4 4

< 9 9 9 9 - 9 9 9 9 - 9 4 4 6 6 6 6 - 6 6 6 6 - 6 6 6 6 - 6 4 4

< 7 7 7 7 - 7 7 7 7 - 7 4 4 4 4 4 4 - 4 4 4 4 - 4 4 4 4 - 4 2 2

< - - - - - - - - - - - - - - - - - - - - - - - - - - - - - - -

<

<

< guitar 2

<

< - - - - - - 7 - - -- - -- - - - - - - - - - - - - 7 - - -- - -- - --

< - - - - - - - 9 - -- - -- - - - - - - - - - - - - - 9 - -- - -- - --

< - - - - - - - - 9 -- - -- - - - - - - - - - - - - - - 9 -- - -- - --

< - - - - - - - - - 11 9 -- - - - - - - - - - - - - - - - 11 9 -- - --

< - - - - - - - - - -- - 11 9 - - - - - - - - - - - - - - -- - 11 9 --

< - - - - - - - - - -- - -- - - - - - - - - - - - - - - - -- - -- - 12

<

< beautiful gets into beautiful trouble,

 

 

< guitar 1

<

< 0 0 0 0 - 0 0 0 0 - 0 0 0 0 - 0 - -

< 0 0 0 0 - 0 0 0 0 - 0 0 0 0 - 0 2 2

< 1 1 1 1 - 1 1 1 1 - 1 1 1 1 - 1 4 4

< 2 2 2 2 - 2 2 2 2 - 2 2 2 2 - 2 4 4

< 2 2 2 2 - 2 2 2 2 - 2 2 2 2 - 2 2 2

< 0 0 0 0 - 0 0 0 0 - 0 0 0 0 - 0 - -

<

<

< guitar 2

<

< - - - - - - - - - - - 7 - -- - -- - --

< - - - - - - - - - - - - 9 -- - -- - --

< - - - - - - - - - - - - - 11 9 -- - --

< - - - - - - - - - - - - - -- - 11 9 --

< - - - - - - - - - - - - - -- - -- - 12

<

< and it

 

 

< guitar 1

<

< - - - - - - - - - - - - - - - - -

< 4 4 4 4 - 4 4 4 4 - 4 4 4 4 - 4 6 6

< 6 6 6 6 - 6 6 6 6 - 6 6 6 6 - 6 8 8

< 6 6 6 6 - 6 6 6 6 - 6 6 6 6 - 6 8 8

< 4 4 4 4 - 4 4 4 4 - 4 4 4 4 - 4 6 6

< - - - - - - - - - - - - - - - - - -

<

<

< guitar 2

<

< - - 0 - - - - 0 - - - - 0 - - - - 0 -

< - 4 - 4 - - 4 - 4 - - 4 - 4 - - 4 - 2

< 6 - - - - 6 - - - - 6 - - - - 6 - - -

< - - - - - - - - - - - - - - - - - - -

< - - - - - - - - - - - - - - - - - - -

< - - - - - - - - - - - - - - - - - - -

<

<

< guitar 3

<

< - - - - - - - - - - - - - - - --

< 2^^^^^^^^ 4^^^^^^^^ 5^^^^^^^^ 12^^^^^^

< - - - - - - - - - - - - - - - --

< - - - - - - - - - - - - - - - --

< - - - - - - - - - - - - - - - --

< - - - - - - - - - - - - - - - --

<

< seems to fall out

 

 

< guitar 1

<

< - - - - - - - - - - - - - - - - - -

< 7 7 7 7 - 7 7 7 7 - 7 7 7 7 - 7 2 2

< 9 9 9 9 - 9 9 9 9 - 9 9 9 9 - 9 4 4

< 9 9 9 9 - 9 9 9 9 - 9 9 9 9 - 9 4 4

< 7 7 7 7 - 7 7 7 7 - 7 7 7 7 - 7 2 2

<

<

< guitar 2

<

< - - - - - - - - - - - - - - - - - - -

< - 2 4 2 - - 2 4 2 - - 2 4 2 - - 4 2 4

< 4 - - - - 4 - - - - 4 - - - - 4 - - -

< - - - - - - - - - - - - - - - - - - -

< - - - - - - - - - - - - - - - - - - -

< - - - - - - - - - - - - - - - - - - -

<

<

< guitar 3

<

< - - - - - - - - - - - - - - - - -

< 9^^^^^^^^^^^^^^^^^^^^^^^^^^^^^^^^

< - - - - - - - - - - - - - - - - -

< - - - - - - - - - - - - - - - - -

< - - - - - - - - - - - - - - - - -

< - - - - - - - - - - - - - - - - -

<

< of the sky and

 

 

< guitar 1

<

< - - - -

< 4 4 4 4

< 6 6 6 6

< 6 6 6 6

< 4 4 4 4

< - - - -

<

<

< guitar 2

<

< - - - - 0 - - - 0 - - - - 0 - - - - 0 - - - - 0 -

< - - 4 - - 4 - 4 - 4 - - 4 - 4 - - 4 - 4 - - 3 - 3

< 6 - - - - - 6 - - - - 6 - - - - 6 - - - - 5 - - -

< - - - - - - - - - - - - - - - - - - - - - - - - -

< - - - - - - - - - - - - - - - - - - - - - - - - -

< - - - - - - - - - - - - - - - - - - - - - - - - -

<

< come down on you

 

< guitar 1

<

< - - -- 0 - 0 0 0 - 0 0 0 0 0 - 0 0 0 0 - 0

< 3 2 10 0 - 0 0 0 - 0 0 0 0 0 - 0 0 0 0 - 0

< 5 4 12 1 - 1 2 1 - 1 1 1 2 1 - 1 1 2 1 - 1

< 5 4 12 2 - 0 2 0 - 2 2 0 2 0 - 2 0 2 0 - 2

< 3 2 10 2 - - 0 - - 2 2 - 0 - - 2 - 0 - - 2

< - - -- 0 - - - - - 0 0 - - - - 0 - - - - 0

<

<

< guitar 2

<

< 1 0 8 5^^^^^^^^^^^^^^^^^^^^^^^^^^^^^^^^^- - - - - -

< - - - - - - - - - - - - - - - - - - - - 4 5 4 5 4 5

< - - - - - - - - - - - - - - - - - - - - - - - - - -

< - - - - - - - - - - - - - - - - - - - - - - - - - -

< - - - - - - - - - - - - - - - - - - - - - - - - - -

< - - - - - - - - - - - - - - - - - - - - - - - - - -

<

< oh baby burn fast die

 

 

< guitar 1

<

< 0 - 0 0 0 - 0 0 0 0 0 - 0 0 0 0 - 0 0 0 0 0 - 0 0 0 0 - 0 0 0 0 0

< 0 - 0 0 0 - 0 0 0 0 0 - 0 0 0 0 - 0 0 0 0 0 - 0 0 0 0 - 0 0 0 0 0

< 1 - 1 2 1 - 1 1 1 2 1 - 1 1 2 1 - 1 1 1 2 1 - 1 1 2 1 - 1 1 1 2 1

< 2 - 0 2 0 - 2 2 0 2 0 - 2 0 2 0 - 2 2 0 2 0 - 2 0 2 0 - 2 2 0 2 0

< 2 - - 0 - - 2 2 - 0 - - 2 - 0 - - 2 2 - 0 - - 2 - 0 - - 2 2 - 0 -

< 0 - - - - - 0 0 - - - - 0 - - - - 0 0 - - - - 0 - - - - 0 0 - - -

<

<

< guitar 2

<

< 4^^^^^^^^^^^^^^^^^^^^^^^^^^^^^^^^^^^^^^^^^^^^^^^^^^^^^^^^^^^^^^^^

< - - - - - - - - - - - - - - - - - - - - - - - - - - - - - - - - -

< - - - - - - - - - - - - - - - - - - - - - - - - - - - - - - - - -

< - - - - - - - - - - - - - - - - - - - - - - - - - - - - - - - - -

< - - - - - - - - - - - - - - - - - - - - - - - - - - - - - - - - -

< - - - - - - - - - - - - - - - - - - - - - - - - - - - - - - - - -

<

< younger burns rubber useless rockers from

 

 

< guitar 1

<

< 0 - 0 0 0 - 0 0 0 0 0 - 2 0 4 2 - 2 0 4 2

< 0 - 0 0 0 - 0 0 0 0 0 - 2 2 4 2 - 2 2 4 2

< 1 - 1 2 1 - 1 1 1 2 1 - 4 2 4 2 - 4 2 4 2

< 2 - 0 2 0 - 2 2 0 2 0 - 4 2 6 4 - 4 2 6 4

< 2 - - 0 - - 2 2 - 0 - - 2 0 6 4 - 2 0 6 4

< 0 - - - - - 0 0 - - - - - - 4 2 - - - 4 2

<

<

< guitar 2

<

< - - - - - - - - - - - - - - - - - - - - - - - - 6 7 6 7 6 7 6

< - - - - - - - - - - - - - - - - - - - - - 4 5 4 - - - - - - -

< 0 0 0 1 1 1 1 2 2 2 2 3 3 3 3 4^^^^^^^^^^^ - - - - - - - - -

< - - - - - - - - - - - - - - - - - - - - - - - - - - - - - - -

< - - - - - - - - - - - - - - - - - - - - - - - - - - - - - - -

< - - - - - - - - - - - - - - - - - - - - - - - - - - - - - - -

<

< england good times hide behind just

 

 

< guitar 1

< ^^^^^^^^^^^^^^^^^^^^^^^

< 0 - 0 0 0 - 0 0 - 0 0 0 - 0 - 0 0 0 - 0

< 0 - 0 0 0 - 0 0 - 0 0 0 - 0 - 0 0 0 - 0

< 1 - 1 2 1 - 1 1 - 1 2 1 - 1 - 1 2 1 - 1

< 2 - 0 2 0 - 2 2 - 0 2 0 - 2 - 0 2 0 - 2

< 2 - - 0 - - 2 2 - - 0 - - 2 - - 0 - - 2

< 0 - - - - - 0 0 - - - - - 0 - - - - - 0

<

<

< guitar 2

<

< 5^^^^^^^^^^^^^^^^^^^^^^^^^^^^^^^^^^^^^^^^^^^^^^^^^^^^^^^^^^^^^

< - - - - - - - - - - - - - - - - - - - - - -

< - - - - - - - - - - - - - - - - - - - - - -

< - - - - - - - - - - - - - - - - - - - - - -

< - - - - - - - - - - - - - - - - - - - - - -

< - - - - - - - - - - - - - - - - - - - - - -

<

< swallow your guilt and your con- science

 

 

< guitar 1

<

< - - - - - - - - - - - - - - - - - - - - - - - - - - - - - - - - - -

< 4 4 4 4 - 4 4 4 4 - 4 4 4 4 - 4 - 2 2 - 7 7 7 7 - 7 7 7 7

< 6 6 6 6 - 6 6 6 6 - 6 6 6 6 - 6 - 4 4 - 9 9 9 9 - 9 9 9 9

< 6 6 6 6 - 6 6 6 6 - 6 6 6 6 - 6 - 4 4 - 9 9 9 9 - 9 9 9 9

< 4 4 4 4 - 4 4 4 4 - 4 4 4 4 - 4 - 2 2 - 7 7 7 7 - 7 7 7 7

< - - - - - - - - - - - - - - - - - - - - - - - - - - - - -

<

<

< guitar 2

<

< - - - - - - - - - - - - - - - - 7 - - -- - -- - --

< - - - - - - - - - - - - - - - - - 9 - -- - -- - --

< - - - - - - - - - - - - - - - - - - 9 -- - -- - --

< - - - - - - - - - - - - - - - - - - - 11 9 -- - --

< - - - - - - - - - - - - - - - - - - - -- - 11 9 --

< - - - - - - - - - - - - - - - - - - - -- - -- - 12

<

< blue and white birds stop and hide on the pedal ,

 

 

< guitar 1

<

< - - - - - - - - - - - - - - - - - - - -

< 7 7 7 7 - 7 - 2 2 - 4 4 4 4 - 4 4 4 4 - 4 4 4 4 - 4 - 2 2

< 9 9 9 9 - 9 - 4 4 - 6 6 6 6 - 6 6 6 6 - 6 6 6 6 - 6 - 4 4

< 9 9 9 9 - 9 - 4 4 - 6 6 6 6 - 6 6 6 6 - 6 6 6 6 - 6 - 4 4

< 7 7 7 7 - 7 - 2 2 - 4 4 4 4 - 4 4 4 4 - 4 4 4 4 - 4 - 2 2

< - - - - - - - - - - - - - - - - - - - - - - - - - - - - -

<

<

< guitar 2

<

< - 7 - - -- - -- - - 7 - - -- - -- - --

< - - 9 - -- - -- - - - 9 - -- - -- - --

< - - - 9 -- - -- - - - - 9 -- - -- - --

< - - - - 11 9 -- - - - - - 11 9 -- - --

< - - - - -- - 11 9 - - - - -- - 11 9 --

< - - - - -- - -- - - - - - -- - -- - 12

<

< interstate five walk straight down the middle,

 

 

< guitar 1

<

< 0 0 0 0 - 0 0 0 0 - 0 0 0 0 - 0 - - -

< 0 0 0 0 - 0 0 0 0 - 0 0 0 0 - 0 - 2 2

< 1 1 1 1 - 1 1 1 1 - 1 1 1 1 - 1 - 4 4

< 2 2 2 2 - 2 2 2 2 - 2 2 2 2 - 2 - 4 4

< 2 2 2 2 - 2 2 2 2 - 2 2 2 2 - 2 - 2 2

< 0 0 0 0 - 0 0 0 0 - 0 0 0 0 - 0 - - -

<

<

< guitar 2

<

< - - - - - - - - - - - - - - 7 - - -- - -- - --

< - - - - - - - - - - - - - - - 9 - -- - -- - --

< - - - - - - - - - - - - - - - - 9 -- - -- - --

< - - - - - - - - - - - - - - - - - 11 9 -- - --

< - - - - - - - - - - - - - - - - - -- - 11 9 --

< - - - - - - - - - - - - - - - - - -- - -- - 12

<

< and it

 

 

< guitar 1

<

< - - - - - - - - - - - - - - - - - - -

< 4 4 4 4 - 4 4 4 4 - 4 4 4 4 - 4 - 6 6

< 6 6 6 6 - 6 6 6 6 - 6 6 6 6 - 6 - 8 8

< 6 6 6 6 - 6 6 6 6 - 6 6 6 6 - 6 - 8 8

< 4 4 4 4 - 4 4 4 4 - 4 4 4 4 - 4 - 6 6

< - - - - - - - - - - - - - - - - - - -

<

<

< guitar 2

<

< - - 0 - - - - 0 - - - - 0 - - - - 0 -

< - 4 - 4 - - 4 - 4 - - 4 - 4 - - 4 - 2

< 6 - - - - 6 - - - - 6 - - - - 6 - - -

< - - - - - - - - - - - - - - - - - - -

< - - - - - - - - - - - - - - - - - - -

< - - - - - - - - - - - - - - - - - - -

<

<

< guitar 3

<

< 2^^^^^^^^ 4^^^^^^^^ 5^^^^^^^^ 12^^^^^^^^^^

< - - - - - - - - - - - - - - - -- - - - - -

< - - - - - - - - - - - - - - - -- - - - - -

< - - - - - - - - - - - - - - - -- - - - - -

< - - - - - - - - - - - - - - - -- - - - - -

< - - - - - - - - - - - - - - - -- - - - - -

<

< seems to fall out

 

 

< guitar 1

<

< - - - - - - - - - - - - - - - - - - - - - - - - -

< 7 7 7 7 - 7 7 7 7 - 7 7 7 7 - 7 - 2 2 4 - 4 - 4 4

< 9 9 9 9 - 9 9 9 9 - 9 9 9 9 - 9 - 4 4 6 - 6 - 6 6

< 9 9 9 9 - 9 9 9 9 - 9 9 9 9 - 9 - 4 4 6 - 6 - 6 6

< 7 7 7 7 - 7 7 7 7 - 7 7 7 7 - 7 - 2 2 4 - 4 - 4 4

< - - - - - - - - - - - - - - - - - - - - - - - - -

<

<

< guitar 2

<

< - - - - - - - - - - - - - - - - - - - - - - - - 0 -

< - 2 4 2 - - 2 4 2 - - 2 4 2 - - 2 4 2 - - - 4 - - 4

< 4 - - - - 4 - - - - 4 - - - - 4 - - - - 6 - - - - -

< - - - - - - - - - - - - - - - - - - - - - - - - - -

< - - - - - - - - - - - - - - - - - - - - - - - - - -

< - - - - - - - - - - - - - - - - - - - - - - - - - -

<

<

< guitar 3

<

< - - - - - - - - - - - - - - - - - - -

< 9^^^^^^^^^^^^^^^^^^^^^^^^^^^^^^^^ - -

< - - - - - - - - - - - - - - - - - - -

< - - - - - - - - - - - - - - - - - - -

< - - - - - - - - - - - - - - - - - - -

< - - - - - - - - - - - - - - - - - - -

<

< of the sky and come down on you

 

 

 

< guitar 2

<

< - - 0 - - - - 0 - - - - 0 - - - - 0 -

< - 4 - 4 - - 4 - 4 - - 4 - 4 - - 3 - 3

< 6 - - - - 6 - - - - 6 - - - - 5 - - -

< - - - - - - - - - - - - - - - - - - -

< - - - - - - - - - - - - - - - - - - -

< - - - - - - - - - - - - - - - - - - -

 

 

< guitar 1

< ^^^^^^^^^^^^^^^^^^^^

< - - -- 0 - 0 0 0 - 0 0 - 0 0 0 - 0 - 0 0 0 - 0

< 3 2 10 0 - 0 0 0 - 0 0 - 0 0 0 - 0 - 0 0 0 - 0

< 5 4 12 1 - 1 2 1 - 1 1 - 1 2 1 - 1 - 1 2 1 - 1

< 5 4 12 2 - 0 2 0 - 2 2 - 0 2 0 - 2 - 0 2 0 - 2

< 3 2 10 2 - - 0 - - 2 2 - - 0 - - 2 - - 0 - - 2

< - - -- 0 - - - - - 0 0 - - - - - 0 - - - - - 0

<

< guitar 2

<

< - - - - - - - - - - - - - - - - - - - - - - -

< 1 0 8 5^^^^^^^^^^^^^^^^^^^^^^^^^^^^^^^^^^^^^^^^^^^^^^^^^^^^^^^^^

< - - - - - - - - - - - - - - - - - - - - - - -

< - - - - - - - - - - - - - - - - - - - - - - -

< - - - - - - - - - - - - - - - - - - - - - - -

< - - - - - - - - - - - - - - - - - - - - - - -

<

< oh baby burn

 

 

< guitar 1

<

< - - - - - - - -

< 4 4 4 4 3 3 3 3

< 6 6 6 6 5 5 5 5

< 6 6 6 6 5 5 5 5

< 4 4 4 4 3 3 3 3

< - - - - - - - -

<

<

< guitar 2[solo]

<

< - - - - - - - - - - - - - - - - - - - - - - - - - - - - - -

< 5 4 2 4^^^^^^ 3 2 0 1 2 4 5 7^8 - 5 5 5 - 3 3 3 - 1 1 1 3 5

< - - - - - - - - - - - - - - - - - - - - - - - - - - - - - -

< - - - - - - - - - - - - - - - - - - - - - - - - - - - - - -

< - - - - - - - - - - - - - - - - - - - - - - - - - - - - - -

< - - - - - - - - - - - - - - - - - - - - - - - - - - - - - -

 

 

< guitar 1

<

< - - - - - - - -

< 4 4 4 4 3 3 3 3

< 6 6 6 6 5 5 5 5

< 6 6 6 6 5 5 5 5

< 4 4 4 4 3 3 3 3

< - - - - - - - -

<

<

< guitar 2[solo continued]

<

< - - - - - - - - - - - - - - - - - - - - - - - - - - - - - - - - -

< 5 5 5 5 7^^^^^^^ ^8 - 5 7^8^^^^^^^^ 5 7^8^^^^^^^^^^ 5 7^8 - 7 5 3

< - - - - - - - - - - - - - - - - - - - - - - - - - - - - - - - - -

< - - - - - - - - - - - - - - - - - - - - - - - - - - - - - - - - -

< - - - - - - - - - - - - - - - - - - - - - - - - - - - - - - - - -

< - - - - - - - - - - - - - - - - - - - - - - - - - - - - - - - - -

 

 

< guitar 1

<

< - - - - - - - - - - - - -

< 3 - 4 4 4 4 4 - 3 3 3 3 3

< 5 - 6 6 6 6 6 - 5 5 5 5 5

< 5 - 6 6 6 6 6 - 5 5 5 5 5

< 3 - 4 4 4 4 4 - 3 3 3 3 3

< - - - - - - - - - - - - -

<

< guitar 2[solo continued]

<

< - - - - - - - - - - - - - - - - - - - - - - - - - - - - - - - - - - - - -

< 1 - 2 - - - - - - - - - - - - - - - - - - - - - - - - - - - - - - - - - -

< - - - - - - - - - - - - - - - - - - - - - - - - - - - - - - - - - - - - -

< - - - - - - 2 - 4 - 2 - 4^5 4^^^^^^^^^^^^^^^^ 2 - 4 2 - 4^5 4^^^^^^^^^^^^

< - - - - - 4 - 4 - - - 4 - - - - - - - - - - - - 4 - - 4 - - - - - - - - -

< - - - - - - - - - - - - - - - - - - - - - - - - - - - - - - - - - - - - -

 

 

< guitar 1

<

< - - - - - - - - - - - - - - --

< 4 4 4 4 3 - - - - 2 - - - - 10

< 6 6 6 6 5 - - - - 4 - - - - 12

< 6 6 6 6 5 - - - - 4 - - - - 12

< 4 4 4 4 3 - - - - 2 - - - - 10

< - - - - - - - - - - - - - - --

<

< guitar 2

<

< - - 0 - - - - 0 - - - - 0 - - - - 0 - - - - 0 - - - - - - - - - - - - - - - -

< - 4 - 4 - - 4 - 4 - - 4 - 4 - - 4 - 4 - - 3 - 3 - 1 ^^^^^^^ 0^^^^^^^^ 8^^^^^^

< 6 - - - - 6 - - - - 6 - - - - 6 - - - - 5 - - - - - - - - - - - - - - - - - -

< - - - - - - - - - - - - - - - - - - - - - - - - - - - - - - - - - - - - - - -

< - - - - - - - - - - - - - - - - - - - - - - - - - - - - - - - - - - - - - - -

< - - - - - - - - - - - - - - - - - - - - - - - - - - - - - - - - - - - - - - -

<

<

< guitar 3

<

< - - 0 - - - - 0 - - - - 0 - - - - 0 - - - - 0 - - - - 0 - - - - 0 - - - - 0 -

< - 4 - 4 - - 4 - 4 - - 4 - 4 - - 4 - 4 - - 3 - 3 - - 3 - 3 - - 3 - 3 - - 3 - 3

< 6 - - - - 6 - - - - 6 - - - - 6 - - - - 5 - - - - 5 - - - - 5 - - - - 5 - - -

< - - - - - - - - - - - - - - - - - - - - - - - - - - - - - - - - - - - - - - -

< - - - - - - - - - - - - - - - - - - - - - - - - - - - - - - - - - - - - - - -

< - - - - - - - - - - - - - - - - - - - - - - - - - - - - - - - - - - - - - - -

 

 

< guitar 1

< ^^^^^^^^^^^^^

< 0 - 0 0 0 - 0 0 - 0 0 0 - 0 - 0 0 0 - 0

< 0 - 0 0 0 - 0 0 - 0 0 0 - 0 - 0 0 0 - 0

< 1 - 1 2 1 - 1 1 - 1 2 1 - 1 - 1 2 1 - 1

< 2 - 0 2 0 - 2 2 - 0 2 0 - 2 - 0 2 0 - 2

< 2 - - 0 - - 2 2 - - 0 - - 2 - - 0 - - 2

< 0 - - - - - 0 0 - - - - - 0 - - - - - 0

<

<

< guitar 2

<

< - - - - - - - - - - - - - - - - - - - - - - - - - -

< 5^^^^^^^^^^^^^^^^^^^^^^^^^^^^^^^^^^^^^^ 4 5 4 5 4 5

< - - - - - - - - - - - - - - - - - - - - - - - - - -

< - - - - - - - - - - - - - - - - - - - - - - - - - -

< - - - - - - - - - - - - - - - - - - - - - - - - - -

< - - - - - - - - - - - - - - - - - - - - - - - - - -

 

 

< guitar 1

< ^^^^^^^^^^^^^^^^^^^^^^^^^^^^^^^^^^

< 0 - 0 0 0 - 0 0 - 0 0 0 - 0 - 0 0 0 - 0

< 0 - 0 0 0 - 0 0 - 0 0 0 - 0 - 0 0 0 - 0

< 1 - 1 2 1 - 1 1 - 1 2 1 - 1 - 1 2 1 - 1

< 2 - 0 2 0 - 2 2 - 0 2 0 - 2 - 0 2 0 - 2

< 2 - - 0 - - 2 2 - - 0 - - 2 - - 0 - - 2

< 0 - - - - - 0 0 - - - - - 0 - - - - - 0

<

<

< guitar 2

<

< - - - - - - - - - - - - - - - - - - - -

< 4^^^^^^^^^^^^^^^^^^^^^^^^ 4 5 4 5 4 5 4^^^^^^^^^^^^^^^^^^^^^^^^^^^^^^^^^^^^

< - - - - - - - - - - - - - - - - - - - -

< - - - - - - - - - - - - - - - - - - - -

< - - - - - - - - - - - - - - - - - - - -

< - - - - - - - - - - - - - - - - - - - -

 

 

vmazariego1@hofstra.edu

 

 

 

Return to my to my Radiohead tabs page

The Tablature is Copyright its respective owners.

Sign Up For My Newsletter
Subscribe | Unsubscribe

Site Map | Disclaimer | Privacy Policy | Media Kit | Submissions/Corrections

Website © 2000-2014 mattsmusicpage.com. All rights reserved.

Legal & DMCA: Matt's Music Page has been providing lyrics and tabs in a legal way, paying royalties each year to a few organizations. Then, all lyrics and tabs were removed from the site. Now, there's a new owner to the site, which purchased it August 26, 2014, and he is in negotiation to obtain licensing from BMI at the moment. If you have a specific DMCA request -- please do not hesitate to contact me via the contact button on top. I will do my very best to keep this site fully legal.

Get our toolbar!

 

Starbucks You Are Here Coffee Mug/Cup KENTUCKY - Horses, Banjo, Blue, White
$19.99
Starbucks You Are Here Coffee Mug/Cup KENTUCKY - Horses, Banjo, Blue, White picture


KNOWLES ROCKWELL HERITAGE "THE BANJO PLAYER" FIRST EDITION 1989 PLATE COA
$5.99
KNOWLES ROCKWELL HERITAGE


Vintage Postcard 1981 Disney World Banjo Kings Main Street USA 1981 Postmark
$4.99
 Vintage Postcard 1981 Disney World Banjo Kings Main Street USA 1981 Postmark picture


Banjo Barometer With Thermometer Hygrometer 490mm
$84.76
Banjo Barometer With Thermometer Hygrometer 490mm picture


ANTIQUE JAPANESE NIPPON FIGURINE SET OF 3 WOMEN GEISHA PLAYING DRUM BANJO FAN
$24.0
ANTIQUE JAPANESE NIPPON FIGURINE SET OF 3 WOMEN GEISHA PLAYING DRUM BANJO FAN picture