Your One-Stop Source For
Music Lyrics
Bass and Guitar Tabs
and More...
Music Lyrics Bass and Guitar Tabs

 

The Tabs Are Below

Learn To Read Tab
Chords Handbook
Corrections & Additions
Get Official Tab
Radiohead tabs @ 911Tabs

 

Radiohead

Electioneering

 

 

By: David Harrison (blaze@interlog.com)

Song: "Electioneering" by "Radiohead"

Album: "OK Computer"

 

I got the basic idea for this by a tab that Steven McGovern did but it was

basically my own creation. If you have a Question, comment, correction, or

addition feel free to e-mail it to me. There's a second guitar in this song

but I just did the one. I tabbed it as if it were one continuous riff so

there's no Chorus or Verse or anything like that.

 

6/ = hit string then bend

/6 = bend string then hit

6/\ = bend string and release

 

 

e----------------------------------------------------10h12p10-----------

B-------------------------------------------------------------10-12-----

G-----12--10--12--10--12--10---------12--10--12--10-----------------10--

D-12--------------------------12----------------------------------------

A-----------------------------------------------------------------------

E-----------------------------------------------------------------------

 

e-----------------------------------------------------------------------

B-----------------------------------------------------------------------

G-----12--10--12--10--12--10---------12--10--12--10--12--10-------------

D-12--------------------------12-----------------------------12---------

A-----------------------------------------------------------------------

E-----------------------------------------------------------------------

 

e-------------------0--0--0--0--0--0--0--0--0--0--0--0--0--0------------

B--------------/6---1--1--1--1--1--1--1--1--1--1--1--1--1--1------------

G-------------------0--0--0--0--0--0--0--0--2--2--2--2--2--2--9p7-9-7---

D-------------------2--2--2--2--2--2--2--2--2--2--2--2--2--2------------

A-------------------3--3--3--3--3--3--3--3--0--0--0--0--0--0------------

E-----------------------------------------------------------------------

 

e-------------------0--0--0--0--0--0--0--0--0--0--0--0--0--0------------

B--------------/6---1--1--1--1--1--1--1--1--1--1--1--1--1--1------------

G-------------------0--0--0--0--0--0--0--0--2--2--2--2--2--2------9-7---

D-------------------2--2--2--2--2--2--2--2--2--2--2--2--2--2------------

A-------------------3--3--3--3--3--3--3--3--0--0--0--0--0--0------------

E-----------------------------------------------------------------------

 

e--------------------------12/\-----------------------------------------

B-----------------------------------------------------------------------

G--12--10--12--10--10--12--------10/\-----12--10--12--10----------------

D---------------------------------------------------------9-0-10-0-12---

A-----------------------------------------------------------------------

E-----------------------------------------------------------------------

 

e----------------------------------------------------------------------------

B----------------------------------------------------------------------------

G-14----12-12-10-10-9-10-9---------------------------------------------------

D--------------------------12-12-10-10-------10------------------------------

A--------------------------------------12-12----12-10------------------------

E-----------------------------------------------------13-13-12-12-10-10--8--8

 

e----------------------------------------------------------------------------

B----------------------------------------------------------------------------

G----------------------------------------------------------------------------

D----------------------------------------------------------------------------

A--------------------------------------------3--0-----x--5--x--7--x--8--10-8-

E--5--5--3--3--1--1--0--0--x--1--x--3--x--5--------3-------------------------

 

e----------------------------------------------12/\--------------------------

B----------------------------------------------------------------------------

G----------------------------9/\/\/\--10-12-10------10/\-----12--10--12--10--

D-----7--7--9--9--10-10-12---------------------------------------------------

A-10-------------------------------------------------------------------------

E----------------------------------------------------------------------------

 

e10h12p10-------------------------------------12/\---------------------------

B---------10-12--------------------------------------------------------------

G---------------10-----12--10--12--10---10-12-------10/\-----12--10--12--10--

D----------------------------------------------------------------------------

A----------------------------------------------------------------------------

E----------------------------------------------------------------------------

 

e----------------------------------------------------------------------------

B----------------------------------------------------------------------------

G-/12-12-12\--10h12p10-----12--10--12--10------------------------------------

D------------------------------------------9-0-10-0-11-0-12------------------

A----------------------------------------------------------------------------

E----------------------------------------------------------------------------

 

e----------0--0--0--0--0--0--0--0--0--0--0--0--0--0----------11111-1---33333-

B-----/6---1--1--1--1--1--1--1--1--1--1--1--1--1--1----------11111-1---33333-

G----------0--0--0--0--0--0--0--0--2--2--2--2--2--2--9p7-9-x-22222-2---44444-

D----------2--2--2--2--2--2--2--2--2--2--2--2--2--2----------33333-3---55555-

A----------3--3--3--3--3--3--3--3--0--0--0--0--0--0--------------------------

E----------------------------------------------------------------------------

 

e-3---11111-1---33333-3---0--0--0--0--0--0--0--0--0--0--0--0--0--0-----------

B-3---11111-1---33333-3---1--1--1--1--1--1--1--1--1--1--1--1--1--1-----------

G-4---22222-2---44444-4---0--0--0--0--0--0--0--0--2--2--2--2--2--2--9p7-9-7--

D-5---33333-3---55555-5---2--2--2--2--2--2--2--2--2--2--2--2--2--2-----------

A-------------------------3--3--3--3--3--3--3--3--0--0--0--0--0--0-----------

E----------------------------------------------------------------------------

 

e-----------------10h12p10--------------------------------------------

B--------------------------10-12--------------------------------------

G-12--10--12--10-----------------10-----12--10--12--10----------------

D-------------------------------------------------------9-0-10-0-11---

A---------------------------------------------------------------------

E---------------------------------------------------------------------

 

e----------------------------------------------------------------------------

B----------------------------------------------------------------------------

G-14----12----10----9h10p9---------------------------------------------------

D--------------------------12----10----------10------------------------------

A--------------------------------------12-12----12-10------------------------

E-----------------------------------------------------13----12----10-----8---

 

e----------------------------------------------------------------------------

B----------------------------------------------------------------------------

G----------------------------------------------------------------------------

D----------------------------------------------------------------------------

A--------------------------------------------3--0--3--x--5--x--7--x--8--10-8-

E--5--5--3--3--1--1--0--0--x--1--x--3--x--5----------------------------------

 

e----------------------------------------------------------------------------

B----------------------------------------------------------------------------

G---------------------------9/\/\/\/\/\/\/\-7\0------------------------------

D-----7----9----10----12-----------------------------------------------------

A-10--------------------------------------------10---------8---10---12-------

E----------------------------------------------------------------------------

 

e----------------------------------------------------------------------------

B----------------------------------------------15---13---1212---1010---1313--

G----------------------------------------------------------------------------

D----------------------------------------------------------------------------

A------------8------10---787878787878787-------------------------------------

E----10----------------------------------------------------------------------

 

e----------------------------------------------------------------------------

B-1212---10---9---9p0-9---9h10p9-9---9h10p9-9---9h10p9-9p6-9p6-9p6-9h10p9-9--

G----------------------------------------------------------------------------

D----------------------------------------------------------------------------

A----------------------------------------------------------------------------

E----------------------------------------------------------------------------

 

e-----------------------------5---------------------------------------8-7----

B-9-10p9-9--5/--6--5-6-3-5/---5-3-1-0--5/--x-x-x-5--3--1 p0-3p0-3-5/-------3-

G----------------------------------------------------------------------------

D----------------------------------------------------------------------------

A----------------------------------------------------------------------------

E----------------------------------------------------------------------------

 

e-----8-7--x-x-12/12121212\-8-8----------------------------------------------

B-5/-------------------------------------------------------------------------

G---------------------------------14-x-x-13-x-x-12----------10-x-x-14-x-x-13-

D--------------------------------------------------10h12p10------------------

A----------------------------------------------------------------------------

E----------------------------------------------------------------------------

 

e----------------------------------------------------------------------------

B----------------------------------------------------------------------------

G-x-x-12----------10-x-x-17-x-x-16-x-x-15-----------x-x-17-x-x-16-x-x-14-----

D--------10h12p10-------------------------15h17-15------------------------12h

A----------------------------------------------------------------------------

E----------------------------------------------------------------------------

 

e---------x-x-13-----------13---------13-----------13---13----------------10-

B---------x-x-15--------------15------15----------------15----------------10-

G---------x-x-14-----------------14---14----------------14-----------14---10-

D14p12-15-x-x-15----------------------15----------------15----------------12-

A----------------------------------------------------------------------------

E----------------------------------------------------------------------------

 

e-------13-----10-------------------------------

B----------10--10-------------------------------

G--------------10-------------------------------

D--------------12-------------------------------

A-----------------------------------------------

E-----------------------------------------------

 

 

Return to my to my Radiohead tabs page

The Tablature is Copyright its respective owners.

Sign Up For My Newsletter
Subscribe | Unsubscribe

Site Map | Disclaimer | Privacy Policy | Media Kit | Submissions/Corrections

Website © 2000-2014 mattsmusicpage.com. All rights reserved.

Legal & DMCA: Matt's Music Page has been providing lyrics and tabs in a legal way, paying royalties each year to a few organizations. Then, all lyrics and tabs were removed from the site. Now, there's a new owner to the site, which purchased it August 26, 2014, and he is in negotiation to obtain licensing from BMI at the moment. If you have a specific DMCA request -- please do not hesitate to contact me via the contact button on top. I will do my very best to keep this site fully legal.

Get our toolbar!

 

1939 LYRIC THEATRE New York PHOTO
$5.83
1939 LYRIC THEATRE New York PHOTO picture


Star Spangled Banner or Marines Hymn lyrics signed by WWII Charles W. Lindberg
$10.0
Star Spangled Banner or Marines Hymn lyrics signed by WWII Charles W. Lindberg picture


OLD LARGE HISTORIC PHOTO OF THE LYRIC THEATRE, SYDNEY c1930s, WAR BONDS BOOTH
$7.42
OLD LARGE HISTORIC PHOTO OF THE LYRIC THEATRE, SYDNEY c1930s, WAR BONDS BOOTH picture


SONG OF REVOLUTION CARD SET WITH 13 MOST FAVORED COMMUNIST SONGS LYRICS + NOTES
$24.99
SONG OF REVOLUTION CARD SET WITH 13 MOST FAVORED COMMUNIST SONGS LYRICS + NOTES picture


OLD LARGE HISTORIC PHOTO OF THE LYRIC THEATRE, SYDNEY c1930s, WAR LOANS BOOTH
$7.42
OLD LARGE HISTORIC PHOTO OF THE LYRIC THEATRE, SYDNEY c1930s, WAR LOANS BOOTH picture