Your One-Stop Source For
Music Lyrics
Bass and Guitar Tabs
and More...
Music Lyrics Bass and Guitar Tabs

 

The Tabs Are Below

Learn To Read Tab
Chords Handbook
Corrections & Additions
Get Official Tab
Radiohead tabs @ 911Tabs

BAND: Radiohead

SONG TITLE: You and whose army?

ALBUM: Amnesiac

 

Notes - I think that a double bass is used on this recording because the notes

die away pretty quickly.

I find the best way to approximate this sound is to put your

hand on the bridge, like you're muting it, but use your thumb to pick

the notes instead of a pick.

 

 

Alrighty then, the bass starts at about 1:12.

 

G-----------------------------------------------------

D-----------------------------------------------------

A--6-----------6-----------4--4--2--2--1-------1------

E--------4-----------4-----------------------2--------

1 2 3 4 1 2 3 4 1 2 3 4 1 + 2 + 3 + 4 +

 

 

G-----------------------------------------------------

D-----------------------------------------------------

A--6-----------6-----------4--4--2--2--1-----------5--

E--------4-----------4--------------------------------

1 2 3 4 1 2 3 4 1 2 3 4 1 + 2 + 3 + 4 +

 

 

Drums start here

G------------------------------------------------------

D------------------------------------------------------

A--6-----------6-----------4--4--2--2--1-----4-----64--

E--------4-----------4-------------------------------64

1 2 3 4 1 2 3 4 1 2 3 4 1 + 2 + 3 + 4e+a

 

Piano starts here

G--------------------------------------------------

D--------------------------------------------------

A-4----4---/7--7--7--7-/9--9-9-9-9\4-----4--6-4----

E-----------------------------------------------6-4

1 2 3 + 4 + 1 + a 2 e + 3 + 4 e + a

 

 

Return to my to my Radiohead bass tabs page

The Tablature is Copyright its respective owners.

Sign Up For My Newsletter
Subscribe | Unsubscribe

Site Map | Disclaimer | Privacy Policy | Media Kit | Submissions/Corrections

Website © 2000-2014 mattsmusicpage.com. All rights reserved.

Legal & DMCA: Matt's Music Page has been providing lyrics and tabs in a legal way, paying royalties each year to a few organizations. Then, all lyrics and tabs were removed from the site. Now, there's a new owner to the site, which purchased it August 26, 2014, and he is in negotiation to obtain licensing from BMI at the moment. If you have a specific DMCA request -- please do not hesitate to contact me via the contact button on top. I will do my very best to keep this site fully legal.

Get our toolbar!