Your One-Stop Source For
Music Lyrics
Bass and Guitar Tabs
and More...
>Music Lyrics Bass and Guitar Tabs

 

The Tabs Are Below

Learn To Read Tab
Chords Handbook
Corrections & Additions
Get Official Tab
Radiohead tabs @ 911Tabs

Title: There There

Artist: Radiohead

Album: Hail To The Thief

 

Instrument: 4 String Bass

 

Tabbed by: sonny (stupidsonny@yahoo.com)

 

Tuning: Standard (E A D G)

 

UPDATED after i saw it on mtv 2. ARLIGHT I GOT A BETTER VIDEO... THis time i think i got it im not sure oh well..... Also i updated this after 3 stars hopefully this will move it up to 5 i know people on the radiohead message boards appreciate the effort, i hope it is worthy of your approval also

 

 

Figure 1

G|-------------------------------------------------------------------||

D|-------------------------------------------------------------------||

A|-14----12--14-----12--14---12--14---------12-----------------------||

E|----------------------------------12--14---------------------------||

 

Figure 2

G|-------------------------------------------------------------------||

D|----------14---12----------------12--------------------------------||

A|---12h14-----------12---14---14------14----------------------------||

E|-------------------------------------------------------------------||

 

Chorus.. These notes are just guider notes im pretty sure nothing is played... in the first half of the chorus...

G|-------------------------------------------------------------------||

D|-------------------------------------------------------------------||

A|----------------------------------------------------Figure 2-------||

E|---5-5-5-5-5-5-5-5-5-5--x--2-2-2-2-2-2-2-2-2-2---------------------||

 

Bridge(rpeat each section until the next chord change, B-D-A-E

G|---------------------------------|-------------------------||

D|---------------------------------|-------------------------||

A|---------------------------------|-5-5-3-5--5-3-5----------||

E|--7-7-7-5-7-7-7--5--7-7--5----7--|-------------------------||

 

Bridge Continued

 

 

G|------------------------|-----------------------------------------||

D|------------------------|-----------------------------------------||

A|------------------------|------7---5h7-----5h7----5h7-------------||

E|--5-5-3-5--5-3-5-5------|-----0-0-------0-0----0-------0----------||

 

 

 

 

 

Return to my to my Radiohead bass tabs page

The Tablature is Copyright its respective owners.

Sign Up For My Newsletter
Subscribe | Unsubscribe

Site Map | Disclaimer | Privacy Policy | Media Kit | Submissions/Corrections

Website © 2000-2014 mattsmusicpage.com. All rights reserved.

Legal & DMCA: Matt's Music Page has been providing lyrics and tabs in a legal way, paying royalties each year to a few organizations. Then, all lyrics and tabs were removed from the site. Now, there's a new owner to the site, which purchased it August 26, 2014, and he is in negotiation to obtain licensing from BMI at the moment. If you have a specific DMCA request -- please do not hesitate to contact me via the contact button on top. I will do my very best to keep this site fully legal.

Get our toolbar!

 

BRAND NEW KEY OF C HOHNER MINI HARMONICA HARP KEYRING KEYCHAIN KEY RING CHAIN
$8.21
BRAND NEW KEY OF C HOHNER MINI HARMONICA HARP KEYRING KEYCHAIN KEY RING CHAIN picture


RISING SONS BAND *2X3 FRIDGE MAGNET* VOCALS GUITAR MANDOLIN DOBRO HARMONICA SONG
$3.99
RISING SONS BAND *2X3 FRIDGE MAGNET* VOCALS GUITAR MANDOLIN DOBRO HARMONICA SONG picture


Vtg Christmas Angel Baby Girl W Harmonica Boy W Book SET OF 2 W GOLD WINGS
$125.0
Vtg Christmas Angel Baby Girl W Harmonica Boy W Book SET OF 2 W GOLD WINGS  picture


Beautiful Hand Carved Jewelry Trinket Jewelry Box Harmonica Case Bone And Brass
$14.5
Beautiful Hand Carved Jewelry Trinket Jewelry Box Harmonica Case Bone And Brass picture


BRAND NEW* HOHNER BOB DYLAN SIGNATURE LIMITED EDITION HARMONICA COLLECTORS ITEM
$140.19
BRAND NEW* HOHNER BOB DYLAN SIGNATURE LIMITED EDITION HARMONICA COLLECTORS ITEM picture