Your One-Stop Source For
Music Lyrics
Bass and Guitar Tabs
and More...
Music Lyrics Bass and Guitar Tabs

 

The Tabs Are Below

Learn To Read Tab
Chords Handbook
Corrections & Additions
Get Official Tab
Radiohead tabs @ 911Tabs

Artist - Radiohead

Song - Planet Telex

Album - The Bends

Tabbed by - Alec MacDonald

 

Awesome song...

 

(0:25) Intro

G|-------------------------------|

D|-------------------------------| x 4

A|5---5---5h7------------7-------|

E|--7---7-----0-0--0-0-----7-7-7-|

 

Rest (0:39) Singing Begins "You can force it..."

 

(0:45) Verse "You can taste it..."

G|--------------------------------------------------------------|

D|--------------------------------------------------------------|

A|------------------4h5p4h5-\----------------------4h5p4h5-\----|

E|5h7-7p5h7--5h7--7--------------5h7-7p5h7--5h7--7--------------|

 

(0:51) Verse

G|-------------------------------------------------- -- --------|

D|------------------6-7-m-7-\----------------------- -- --------|

A|-------------------------------------------------- -- --------|

E|4h5-5p4h5--4h5--5--------------4h5-5p4h5--4h5--5/17-17--\\----|

 

(0:58) Verse "You can crush it..."

G|--------------------------------------------------------------|

D|--------------------------------------------------------------|

A|------------------4h5p4h5-\--------------------------------5--|

E|5h7-7p5h7--5h7--7--------------5h7-7p5h7--5h7--7-7-0-7-0------|

 

(1:04) Verse "You can crush it..."

G|--------------------------------------------------------------|

D|--------------------------------------------------------------|

A|----------------------------5------------------------------4--|

E|5h7-7p5h7--5h7--7-7-0-7-0------5h7-7p5h7--5h7--7-7-0-7-0------|

 

(1:10) "Chasing you home..."

G|------------------------------------------------ -- -- -- -- -- --|

D|------------------6-7-m-7-\--------------------- -- -- -- -- -- --| x 2

A|------------------------------------------------ -- -- -- -- -- --|

E|4h5-5p4h5--4h5--5--------------4h5-5p4h5--4h5/-17-17-17-17-17-17\-|

 

(1:23) Chorus "Everything is broken..."

G|-------------------------------|

D|-------------------------------| x 8

A|--------5h7r-----5---5h7-------|

E|0-0-0-0-----0------7-----------|

 

Rest (1:49) "You can force it..."

 

(1:56) Verse "You can crush it..."

G|--------------------------------------------------------------|

D|--------------------------------------------------------------|

A|------------------4h5p4h5-\----------------------4h5p4h5-\----|

E|5h7-7p5h7--5h7--7--------------5h7-7p5h7--5h7--7--------------|

 

(2:02) Verse

G|--------------------------------------------------------------|

D|--------------------------------------------------------------|

A|--------------------------------------------------------------|

E|4h5-5p4h5--4h5--5-4h5p4h5-\----4h5-5p4h5--4h5--5-4h5p4h5-\----|

 

(2:08) Verse "You can walk it..."

G|--------------------------------------------------------------|

D|--------------------------------------------------------------| x 2

A|------------------4h5p4h5-\----------------------4h5p4h5-\----|

E|5h7-7p5h7--5h7--7--------------5h7-7p5h7--5h7--7--------------|

 

(2:14) Verse

G|--------------------------------------------------------------|

D|------------------------7------------------------------7-7-7--|

A|--------------------------------------------------------------|

E|4h5-5p4h5--4h5--5-4h5p4---7----4h5-5p4h5--4h5--5-4h5p4-------7|

 

(2:21) Verse

G|------------------------------------------------------------------|

D|------------------------7-----------------------------------------| x 2

A|------------------------------------------------------------------|

E|4h5-5p4h5--4h5--5-4h5p4---7----4h5-5p4h5--4h5/-17-17-17-17-17-17\-|

 

(2:34) Chorus "Everything is broken"

G|-------------------------------|

D|-------------------------------| x 8

A|--------5h7r-----5---5h7-------|

E|0-0-0-0-----0------7-----------|

 

(3:00) Chorus

G|------------------ -- ---------|

D|------------------ -- ---------|

A|--------5h7r--7//12-10-7-------|

E|0-0-0-0-----0----- -- ---------|

 

(3:03) Chorus

G|-------------------------------|

D|-------------------------------| x 6

A|--------5h7r-----5---5h7-------|

E|0-0-0-0-----0------7-----------|

 

(3:19) Chorus "Bro-ken"

G|-------------------------- --- --|

D|-------------------------- --- --|

A|--------5h7r-----5---5h7/12--10--|

E|0-0-0-0-----0------7------ --- --|

^ ^

Play these two notes in time with the singing of "broken"

 

Rest (3:26) "Why can't you forget?"

 

 

(3:38) Outro "Why can't you forget?"

G|-------------------------------|

D|-------------------------------| x 3

A|5---5---5h7------------7-------|

E|--7---7-----0-0--0-0-----------|

 

(3:48) Outro

G|-------------------------------|

D|-------------------------------| x 1

A|5---5---5h7------------7-------|

E|--7---7-----0-0--0-0-----7-7-7-|

 

(3:52) Outro

G|-------------------------------|

D|-------------------------------| x 3

A|5---5---5h7------------7-------|

E|--7---7-----0-0--0-0-----------|

 

Start fade out during last repetition of the above riff

 

(4:01) Outro

G|-------------------------------|

D|-------------------------------| x 1

A|5---5---5h7------------7-------|

E|--7---7-----0-0--0-0-----7-7-7-|

 

(4:04) Outro

G|-------------------------------|

D|-------------------------------| x 3

A|5---5---5h7------------7-------|

E|--7---7-----0-0--0-0-----------|

 

Be completely faded out by now...with the volume really high you can barely hear the last 7.

 

Return to my to my Radiohead bass tabs page

The Tablature is Copyright its respective owners.

Sign Up For My Newsletter
Subscribe | Unsubscribe

Site Map | Disclaimer | Privacy Policy | Media Kit | Submissions/Corrections

Website © 2000-2014 mattsmusicpage.com. All rights reserved.

Legal & DMCA: Matt's Music Page has been providing lyrics and tabs in a legal way, paying royalties each year to a few organizations. Then, all lyrics and tabs were removed from the site. Now, there's a new owner to the site, which purchased it August 26, 2014, and he is in negotiation to obtain licensing from BMI at the moment. If you have a specific DMCA request -- please do not hesitate to contact me via the contact button on top. I will do my very best to keep this site fully legal.

Get our toolbar!