Your One-Stop Source For
Music Lyrics
Bass and Guitar Tabs
and More...
Music Lyrics Bass and Guitar Tabs

 

The Tabs Are Below

Learn To Read Tab
Chords Handbook
Corrections & Additions
Get Official Tab
Radiohead tabs @ 911Tabs

TABBED BY: Ross (piplegible@aol.com)

 

 

You guys better use and enjoy this because it took me a whole lot of time to figure it out. During the solos Colin may be doing something else (Jonny’s guitar is so raw) but the verses are right I guess. So play on and enjoy.

 

INTRO

G|----------------------------

D|xxxxxxxxxxxxxxxxxxxx

A|----------------------------

E|----------------------------

 

VERSE 1

G|----5--5

D|---------

A|--5—5--

E|5--------

 

VERSE 1 FILL

G|----5-5/6\5

D|---------------

A|--5------------

E|5--------------

 

2nd VERSE 1 FILL

G|----------5—-5

D|---------------

A|-----2—5—5--

E|1--3—5-------

 

CHORUS

G|------------------------------------

D|------------------------------------

A|----------------3-----3-55555555

E|5555-5555-33-3-33-3------------

 

1st GUITAR SOLO

G|----------

D|------2---

A|3535—3-

E|----------

 

AFTER GUITAR SOLO

G|--------------------------------------------------------------

D|----------------------------------------------10-10-10\888

A|555-7-5-5—555-7-5-55-7-5-555-7-5/10-----------------

E|---------------------------------------------------------------

 

VERSE 2

G|----5--5

D|---------

A|--5—5--

E|5--------

 

VERSE 2 FILL

G|---------------------------------

D|----------------10-10-10\888

A|5-555-7-5/10-----------------

E|---------------------------------

 

LAST GUITAR SOLO

G|--------------------------

D|--------------------------

A|5-7-5-7-5—5-7-5-9-5

E|--------------------------

 

That’s it. Great song. This song is easy and fun on guitar, complex and fun on the bass guitar. Good luck to all of you!

 

BYEBYE

 

Ross

(Piplegible@aol.com)

 

 

Return to my to my Radiohead bass tabs page

The Tablature is Copyright its respective owners.

Sign Up For My Newsletter
Subscribe | Unsubscribe

Site Map | Disclaimer | Privacy Policy | Media Kit | Submissions/Corrections

Website © 2000-2014 mattsmusicpage.com. All rights reserved.

Legal & DMCA: Matt's Music Page has been providing lyrics and tabs in a legal way, paying royalties each year to a few organizations. Then, all lyrics and tabs were removed from the site. Now, there's a new owner to the site, which purchased it August 26, 2014, and he is in negotiation to obtain licensing from BMI at the moment. If you have a specific DMCA request -- please do not hesitate to contact me via the contact button on top. I will do my very best to keep this site fully legal.

Get our toolbar!

 

Starbucks You Are Here Coffee Mug/Cup KENTUCKY - Horses, Banjo, Blue, White
$19.99
Starbucks You Are Here Coffee Mug/Cup KENTUCKY - Horses, Banjo, Blue, White picture


KNOWLES ROCKWELL HERITAGE "THE BANJO PLAYER" FIRST EDITION 1989 PLATE COA
$5.99
KNOWLES ROCKWELL HERITAGE


Vintage Postcard 1981 Disney World Banjo Kings Main Street USA 1981 Postmark
$4.99
 Vintage Postcard 1981 Disney World Banjo Kings Main Street USA 1981 Postmark picture


Banjo Barometer With Thermometer Hygrometer 490mm
$84.76
Banjo Barometer With Thermometer Hygrometer 490mm picture


ANTIQUE JAPANESE NIPPON FIGURINE SET OF 3 WOMEN GEISHA PLAYING DRUM BANJO FAN
$24.0
ANTIQUE JAPANESE NIPPON FIGURINE SET OF 3 WOMEN GEISHA PLAYING DRUM BANJO FAN picture