Your One-Stop Source For
Music Lyrics
Bass and Guitar Tabs
and More...
Music Lyrics Bass and Guitar Tabs

 

The Tabs Are Below

Learn To Read Tab
Chords Handbook
Corrections & Additions
Get Official Tab
Radiohead tabs @ 911Tabs

Title: Lift

Artist: Radiohead

Album:

 

Instrument: 4 String Bass

 

Tabbed by: Sonny (stupidsonny@yahoo.com)

 

Tuning: Standard (E A D G)

 

This is the version off pink pop, the more fast tempo one, such. Please email any questions

S-Slide, H-Hammer on, P-Pull Off

 

Intro:

G|---------------------||

D|---------------------||

A|-2--2--2-2-2-2-0h2---||

E|---------------------||

 

Verse Part 1:

G|-------------------------------------------------------------------||

D|-------------------------------------------------------------------||

A|-2--2---2-2-2-2-0h2--2--2---2-2-2-2-0h2-2--2---2-2-2-2-0h2---------||

E|-------------------------------------------------------------------||

 

G|-------------------------------------------------------------------||

D|-----7------------------7------------------------------------------||

A|-------------------------------------------------------------------||

E|5------7s5-5h7--5h7-5----5h7-5h7--4-4-4-4-4--x0--0s12-0h12---12-12-||

 

Verse part 2:

G|--4-------4------------4-------4---------4---4-----4---------------||

D|-------------------------------------------------------------------||

A|-2--2---2---2-2-0h2--2--2---2-2---2-0h2-2--2---2-2---2-0h2---------||

E|-------------------------------------------------------------------||

 

 

G|-------------------------------------------------------------------||

D|------7---7-------7----7---7--------------------------9------------||

A|-------------------------------------------------7-7---7-----------||

E|5-5-5--5---5h7-5---5h7--5---4-4x4-4-4-4---0-0--0-0----0-7-9-10-12s0||

 

Verse Part 3:

G|--4-------4------------4-------4---------4---4-----4---------------||

D|-------------------------------------------------------------------||

A|-2--2---2---2-2-0h2--2--2---2-2---2-0h2-2--2---2-2---2-0h2---------||

E|-------------------------------------------------------------------||

 

G|-------------------------------------------------------------------||

D|------7--7--------7----7---7-------------------------------7-9-7h9-||

A|--------------------------------------------7--7----7---7-9--------||

E|5-5-5---5---5h7-5---5h7--5---4-4x4-4-4-4---0-0--0-0----0-----------||

 

Chorus:

G|-------------------------------------------------------------------||

D|-----9----9-----9-----9---9--9--9-----9-----9-----9----9-----------||

A|-------------------------------------------------------------------||

E|-7-----7-----7-----7----7--7-------7-----7-----7----7--------------||

 

G|-------------------------------------------------------------------||

D|-------------------------------------------------------------------||

A|------------7---9---9---7------------------------------------------||

E|-4--5--7---9----------------0-0-0-0--0-0---------------------------||

 

Chorus Part 2:

G|----------------||

D|----------------||

A|------7-9p7h9---||

E|--7-9-----------||

 

 

Outro: Last few notes

G|---------------------------------||

D|---------------------------------||

A|---------------------------------||

E|----7----5---0-------------------||

 

Order:

Intro: 2x

Verse Part One:1x

Verse Part Two:1x

Verse Part Three:1x

Chorus: 1x

Verse Part One:1x

Verse Part Three:1x

Chorus:1x add chorus part two on the end

Outro: 1x.... wait till the end

 

 

Return to my to my Radiohead bass tabs page

The Tablature is Copyright its respective owners.

Sign Up For My Newsletter
Subscribe | Unsubscribe

Site Map | Disclaimer | Privacy Policy | Media Kit | Submissions/Corrections

Website © 2000-2014 mattsmusicpage.com. All rights reserved.

Legal & DMCA: Matt's Music Page has been providing lyrics and tabs in a legal way, paying royalties each year to a few organizations. Then, all lyrics and tabs were removed from the site. Now, there's a new owner to the site, which purchased it August 26, 2014, and he is in negotiation to obtain licensing from BMI at the moment. If you have a specific DMCA request -- please do not hesitate to contact me via the contact button on top. I will do my very best to keep this site fully legal.

Get our toolbar!

 

VINTAGE SORRENTO MUSIC JEWELRY BOX
$45.0
VINTAGE SORRENTO MUSIC JEWELRY BOX picture


VINTAGE LACQUERED MUSIC BOX JAPAN
$25.99
VINTAGE LACQUERED MUSIC BOX JAPAN picture


Vintage Kehlsteinhaus Bavaria Germany Colorscope Cow Bell View Master Music Box
$8.99
Vintage Kehlsteinhaus Bavaria Germany Colorscope Cow Bell View Master Music Box picture


VINTAGE SCHMIDT Signed Collectible Musical Turning Clown
$9.99
VINTAGE  SCHMIDT Signed Collectible Musical Turning Clown picture


Vintage - Linen - Postcard - Stage - Radio City Music Hall - New York City
$3.75
Vintage - Linen - Postcard - Stage - Radio City Music Hall - New York City   picture