Your One-Stop Source For
Music Lyrics
Bass and Guitar Tabs
and More...
Music Lyrics Bass and Guitar Tabs

 

The Tabs Are Below

Learn To Read Tab
Chords Handbook
Corrections & Additions
Get Official Tab
Radiohead tabs @ 911Tabs

 

Author/Artist: Radiohead

Title: Just

Transcribed by: svin

 

Listen to the song for the rhythm

 

Intro

------------------------------------------------------------------------------

-------------------3-3-3-5666663----------------------------------------------

--3-3-56-66-6-6-66------------------------------------------------------------

------------------------------------------------------------------------------

 

verse

------------------------------------------------------------------------------

------------------------------------------------------------------------------

-----------------656-8-10-12\------------------656-8-10-8\--------------------

-5-5-55-54-4-44-4--------------5-5-55-54-4-44-4-------------------------------

 

prechorus

------------------------------------------------------------------------------

------------------------------------------------------------------------------

-----56865-------35635--------------------------------------------------------

-5-7---------45----------353-242-1----------------------------------------------

 

 

chorus

------------------------------------------------------------------------------

------------------------------------------------------------------------------

--3-3-3-----------------------------------------------------------------------

-------2-22-2-2\1-1-1-1-11-11-1111--------------------------------------------

 

 

riff 1

------------------------------------------------------------------------------

------------------------------------------------------------------------------

--7-7-75-55-5-554-4-4-4-------------------------------------------------------

-----------------------33333333-----------------------------------------------

 

 

riff 2

------------------------------------------------------------------------------

------------------------------------------------------------------------------

----------------------------656-8-10-12\--------------------------------------

--5-5-55-55-5-5444-44-44-4----------------------------------------------------

 

 

riff 3

------------------------------------------------------------------------------

------------------------------------------------------------------------------

------------------------------------------------------------------------------

--5-5-55-55-5-5444-44-44-4--3-3-3-3-2-2-2-2-1---------------------------------

 

 

riff 4

------------------------------------------------------------------------------

------------------------------------------------------------------------------

--/3-3-31-11-1-1000-0/666665656-----------------------------------------------

------------------------------------------------------------------------------

 

 

Song:

 

Intro 2x

Verse

Prechorus

Chorus 2x

Intro 2x

Verse

Prechorus

Chorus 2x

Intro 2x

Riff 1 2x

Riff 2

Riff 3

Chorus 4X

Intro 4x

Riff 4

 

Return to my to my Radiohead bass tabs page

The Tablature is Copyright its respective owners.

Sign Up For My Newsletter
Subscribe | Unsubscribe

Site Map | Disclaimer | Privacy Policy | Media Kit | Submissions/Corrections

Website © 2000-2014 mattsmusicpage.com. All rights reserved.

Legal & DMCA: Matt's Music Page has been providing lyrics and tabs in a legal way, paying royalties each year to a few organizations. Then, all lyrics and tabs were removed from the site. Now, there's a new owner to the site, which purchased it August 26, 2014, and he is in negotiation to obtain licensing from BMI at the moment. If you have a specific DMCA request -- please do not hesitate to contact me via the contact button on top. I will do my very best to keep this site fully legal.

Get our toolbar!