Your One-Stop Source For
Music Lyrics
Bass and Guitar Tabs
and More...
Music Lyrics Bass and Guitar Tabs

 

The Tabs Are Below

Learn To Read Tab
Chords Handbook
Corrections & Additions
Get Official Tab
Radiohead tabs @ 911Tabs

 

Song - The Bends

Band - Radiohead

Album - The Bends

Bass Tab

 

Tabbed by Philip (moon_acid@hotmail.com)

 

Intro

 

G |: ------------------

D |: ------------------ x6

A |: 5--5--5-5--2-3-3-2

E |: ------------------

 

Ist verse

 

G |: -----------------------------------------------------

D |: ----------------------------------------------------- x2

A |: 7--7-7--7-7--10--10-10-10-10--3--3-3--3-3--3--3-3-3-3

E |: -----------------------------------------------------

 

Bridge

 

G |: ----------------------------------3---3---3--

D |: ---------4-6-7-6-4----------2-3-5---5---5---5

A |: -----4-5-----------5-55-3-3------------------

E |: 5--5-----------------------------------------

 

2nd verse

 

G |: -----------------------------------------------------

D |: ----------------------------------------------------- x2

A |: 7--7-7--7-7--10--10-10-10-10--3--3-3--3-3--3--3-3-3-3

E |: -----------------------------------------------------

 

1st chorus

 

G |: ------------------

D |: ------------------ x3

A |: 5--5--5-5--2-3-3-2

E |: ------------------

 

 

"Lying in a bar ....... I wish it was the sixties"

 

G |: ----------------------------------------------

D |: ----------------------------------------------

A |: ----------------------------------------------

E |: 5----5----5----5----0----0----5----5----5----5

 

3rd verse

 

G |: -----------------------------------------------------

D |: ----------------------------------------------------- x2

A |: 7--7-7--7-7--10--10-10-10-10--3--3-3--3-3--3--3-3-3-3

E |: -----------------------------------------------------

 

2nd chorus

 

G |: ------------------

D |: ------------------ x3

A |: 5--5--5-5--2-3-3-2

E |: ------------------

 

"Lying in a bar ....... I wish it was the sixties"

 

G |: ----------------------------------------------

D |: ----------------------------------------------

A |: ----------------------------------------------

E |: 5----5----5----5----0----0----5----5----5----5

 

G |: -----0---------5---------0---------5

D |: ------------------------------------ x4

A |: ----------3-------------------3-----

E |: 3-------------------3---------------

 

outro

play slower

G |: -----------------------------------------------------

D |: -----------------------------------------------------

A |: 7--7-7--7-7--10--10-10-10-10--3--3-3--3-3--3--3-3-3-3

E |: -----------------------------------------------------

 

This is an easy song to play. You just have to follow it down the page.

If you have any questions or anything please e-mail me at

moon_acid@hotmail.com

 

Thanks

 

Return to my to my Radiohead bass tabs page

The Tablature is Copyright its respective owners.

Sign Up For My Newsletter
Subscribe | Unsubscribe

Site Map | Disclaimer | Privacy Policy | Media Kit | Submissions/Corrections

Website © 2000-2014 mattsmusicpage.com. All rights reserved.

Legal & DMCA: Matt's Music Page has been providing lyrics and tabs in a legal way, paying royalties each year to a few organizations. Then, all lyrics and tabs were removed from the site. Now, there's a new owner to the site, which purchased it August 26, 2014, and he is in negotiation to obtain licensing from BMI at the moment. If you have a specific DMCA request -- please do not hesitate to contact me via the contact button on top. I will do my very best to keep this site fully legal.

Get our toolbar!