Your One-Stop Source For
Music Lyrics
Bass and Guitar Tabs
and More...
Music Lyrics Bass and Guitar Tabs

 

The Tabs Are Below

Learn To Read Tab
Chords Handbook
Corrections & Additions
Get Official Tab
Radiohead tabs @ 911Tabs

 Title: 2 + 2 = 5

Artist: Radiohead

Album: Hail To The Thief

 

Instrument: 4 String Bass

 

Tabbed by: Sonny (stupidsonny@yahoo.com)

 

Tuning: Standard (E A D G)

 

I tabbed this off the video of them on Jools, so I am 100% sure that this at least 50% correct : - ). Also I am 100% sure that the bass does not come in until the first chorus is over. Alright enjoy this.

 

Part One "Paying Attention"

G|----------------|----------------|----------------|----------------||

D|----------------|----------------|----------------|----------------||

A|--8---8--8---8-8|--7---7--7---7-7|----------------|----------------||

E|----------------|----------------|-/9---9--9---9-9|--8---8--8---8-8||

 

G|----------------|----------------|----------------|----------------||

D|----------------|----------------|----------------|----------------||

A|----------------|----------------|-------------/11|-------------/11||

E|--8---8--8---8-8|11--11-11--11-11|-9--9--9--9-9---|-9--9--9--9-9---||

 

G|-------------------|-----------------|----------------|----------------||

D|-------------------|-10-10--8-8h10-10|----------------|----------------||

A|-------------------|-----------------|8-8--8-8-8-8/10\|7-7---7--7---7-7||

E|-8-8---8--8--8-8-8-|8----------------|----------------|----------------||

 

G|----------------|----------------|-----------------|----------------||

D|----------------|----------------|---8/10-10--10-10|----------------||

A|----------------|----------------|-----------------|----------------||

E|-/9---9--9---9-9|--8---8--8---8-8|8-8--------------|11--11-11--11-11||

 

G|----------------|----------------|----------------|----------------||

D|----------------|----------------|----------------|----------------||

A|-------------/11|-------------/11|----------------|----------------||

E|-9--9--9--9-9---|-9--9--9--9-9---|--8---8--8---8-8|--8---8--8---8-8||

 

Part 2 "Cuzimnot":

G|-----------|-----------|-----------|----------||

D|-----------|-----------|-----------|----------||

A|-----------|-----------|-----------|----------||<----2x

E|4--4--6--6-|4--4--6--6-|-3-3--3-1-3|3-3--3-1-3||

 

G|-----------|-----------|----------------|----------------||

D|-----------|-----------|----------------|----------------||

A|-----------|-----------|----------------|----------------||<---3x

E|9--9--3--3-|9--9--3--3-|3-3-1-3/-15-15--|3-3-1-3/-15-15--||

 

G|----------------||

D|----------------||

A|----------------||<----2x

E|3-3-1-3/-15-15--||

 

Rest

 

G|----------------||

D|----------------||

A|----------------||<----2x

E|3-3-1-3/-15-15--||

 

G|-----------|-----------|----------------|----------------||

D|-----------|-----------|----------------|----------------||

A|-----------|-----------|----------------|----------------||

E|9--9--3--3-|9--9--3--3-|3-3-1-3/-15-15--|3-3-1-3/-15-15--||

 

G|----------------||

D|----------------||

A|----------------||<----2x

E|3-3-1-3/-15-15--||

 

 

Return to my to my Radiohead bass tabs page

The Tablature is Copyright its respective owners.

Sign Up For My Newsletter
Subscribe | Unsubscribe

Site Map | Disclaimer | Privacy Policy | Media Kit | Submissions/Corrections

Website © 2000-2014 mattsmusicpage.com. All rights reserved.

Legal & DMCA: Matt's Music Page has been providing lyrics and tabs in a legal way, paying royalties each year to a few organizations. Then, all lyrics and tabs were removed from the site. Now, there's a new owner to the site, which purchased it August 26, 2014, and he is in negotiation to obtain licensing from BMI at the moment. If you have a specific DMCA request -- please do not hesitate to contact me via the contact button on top. I will do my very best to keep this site fully legal.

Get our toolbar!

 

VINTAGE SORRENTO MUSIC JEWELRY BOX
$45.0
VINTAGE SORRENTO MUSIC JEWELRY BOX picture


VINTAGE LACQUERED MUSIC BOX JAPAN
$25.99
VINTAGE LACQUERED MUSIC BOX JAPAN picture


Vintage Kehlsteinhaus Bavaria Germany Colorscope Cow Bell View Master Music Box
$8.99
Vintage Kehlsteinhaus Bavaria Germany Colorscope Cow Bell View Master Music Box picture


VINTAGE SCHMIDT Signed Collectible Musical Turning Clown
$9.99
VINTAGE  SCHMIDT Signed Collectible Musical Turning Clown picture


Vintage - Linen - Postcard - Stage - Radio City Music Hall - New York City
$3.75
Vintage - Linen - Postcard - Stage - Radio City Music Hall - New York City   picture