Your One-Stop Source For
Music Lyrics
Bass and Guitar Tabs
and More...
Music Lyrics Bass and Guitar Tabs

 

The Radiohead Guitar Tabs Are Below

Learn To Read Tab
Chords Handbook
Corrections & Additions
Get Official Tab
Radiohead tabs @ 911Tabs

A punchup at a wedding

----------------------------------------------------------------------------

 

Standard tuning

 

This is a great song

 

Intro (this part is done on bass, i think)

 

e-----------------------|

B-----------------------|

G--------9-----7--------|

D-----------------9-----| X4

A--7-----------------10-|

E-----------------------|

 

Piano bit

 

e--0--2----------2----------2----------2--|

B--3--5----------5----------5----------5--|

G--2--4--4-4--4--4--4-4--4--4--4-4--4--4--|

D--0--2--2-2--2-----2-2--2-----2-2--2-----|

A-----------------------------------------|

E-----------------------------------------|

 

I could only work out the first part of the piano but it repeats througt the song.

 

Verse

 

Guitar

I don't now...

e-----------------------------------------------|

B-----------------------------------------------|

G-----------------------------------------------|

D---------------5----------------------5--------|

A--5--7--5--7------7-------5--7--5--7-----7-5---|

E---------------------------------------------7-|

 

Play this up untill the chorus

 

Chorus

 

e-------7--------------------7-------|

B----------7-----8-----8--------7--8-|

G-9-----------------9-----9----------|

D----9-------------------------------|

A------------------------------------|

E------------------------------------|

 

e---------9------------------------9----------|

B-----10------10----------10---------------10-|

G-11--------------------------11-------11-----|

D-------------------12------------------------|

A---------------------------------------------|

E---------------------------------------------|

 

e----5-----7--5------------5--7--5-------------|

B-5--------8--7-----5------5--8--7-----5-------|

G-------5--------5------7-----------5-----5--7-|

D----------------------------------------------|

A----------------------------------------------|

E----------------------------------------------|

 

e-------7-----7---------7----------------------------|

B----------5-----------------------------------------|

G--7b9------------7b9------7----5--------------------|

D------------------------------------7----7--5-------|

A-----------------------------------------------7--5-|

E----------------------------------------------------|

 

After playing the chorus through once play the verse riff again but put slight variation

it now and then. Play the chorus for a second time and then play the end below.

 

Outro

 

e------------------------------------------|

B------------------------------------------|

G------------------------------------------|

D--------------5--------------------5--x-5-|

A-5--7--5--7------7-----5--7--5--7---------|

E------------------------------------------|

 

e----------------------------------------------------|

B----------------------------------------------------|

G--------------------------------------------7-----7-|

D--------------5---------------------5---/9-----9----|

A-5--7--5--7-----5h7----5--7--5--7-------------------|

E----------------------------------------------------|

 

e--------------------------------------------------|

B--------------------------------------------------|

G----------------------------------------7-------7-|

D--------------5---------------------5------9p7----|

A-5--7--5--7------7-----5--7--5--7-----------------|

E--------------------------------------------------|

 

e-----------------------------------------------|

B-----------------------------------------------|

G-----------------------------------------------|

D--------------5--------------------------------|

A-5--7--5--7-----5h7----5--7--5--7----------7-x-|

E------------------------------------3-/-7------|

 

At the very end of the song there is a little synth bit which i worked out. THis is it.

 

e-12-12-12--------12-12-12---------12-12\-|

B----------12-12-----------12-12----------|

G-----------------------------------------|

D-----------------------------------------|

A-----------------------------------------|

E-----------------------------------------|

 

Key

 

h= hammer on

p= pull off

/= slide up

\= slide down

b= bend note

x= muted note

 

If there are any problems i am sorry, i tried my best.

Click here to return to my Radiohead Guitar Tabs page

The Radiohead Guitar Tablature is Copyright its respective owners.

Sign Up For My Newsletter
Subscribe | Unsubscribe

Site Map | Disclaimer | Privacy Policy | Media Kit | Submissions/Corrections

Website © 2000-2014 mattsmusicpage.com. All rights reserved.

Get our toolbar!