Your One-Stop Source For
Music Lyrics
Bass and Guitar Tabs
and More...
Music Lyrics Bass and Guitar Tabs

 

The Tabs Are Below

Learn To Read Tab
Chords Handbook
Corrections & Additions
Get Official Tab
QOTSA tabs @ 911Tabs

A Song For The Deaf

Tuning-C G Eb Bb F C

 

Riff A:

C|--------------------------------||

G|--------------------------------||

Eb|--------------------------------||

Bb|----------------------6v-6v-----||

F|----8p7----8p7----8p7-------8p7-||

C|-0------0------0----------------||

 

 

Chorus Riff:

C|--------0---------0---------0---------0--||

G|--------0---------0---------0---------0--||

Eb|-----------------------------------------||

Bb|-7--7-7----9--9-9----5--5-5----5--5-5----||

F|-7--7-7----9--9-9----5--5-5----5--5-5----||

C|-5--5-5----7--7-7----3--3-3----3--3-3----||

 

 

Chorus Fills:

C|-------------|-------------|----------|-------||

G|-10h12p10-10-|-12h14p12-12-|-8h10p8-8-|-8h10--||

Eb|-------------|-------------|----------|-------||

Bb|-------------|-------------|----------|-------||

F|-------------|-------------|----------|-------||

C|-------------|-------------|----------|-------||

 

 

Riff B: (x4) (x4)

C|--------------------|--------------------||

G|-13p12p10-12p10-12--|--------------------||

Eb|--------------------|-14p13p11-13p11-13--||

Bb|--------------------|--------------------||

F|--------------------|--------------------||

C|--------------------|--------------------||

 

 

Canary Riff:

C|---------------------------------||

G|-13---10-12-----------12---------||

Eb|------------10---13------10------||

Bb|----------------------------12---||

F|---------------------------------||

C|---------------------------------||

 

 

Verse 3:

C|-----------------------------------------------|

G|-----------------------------------------------|

Eb|-----------------------------------------------|

Bb|-2----------2-2---2----2-2-2--2--2--2-2-2-2-2--|

F|-2----------2-2---2----2-2-2--2--2--2-2-2-2-2--|

C|-0----------0-0---0----0-0-0--0--0--0-0-0-0-0--|

 

C|-----------------------------------------------||

G|-----------------------------------------------||

Eb|-----------------------------------------------||

Bb|-2----------2-2---------2----------2-2---------||

F|-2----------2-2---------2----------2-2---------||

C|-0----------0-0---------0----------0-0---------||

 

 

Verse 4:

Riff A.

C|---------------------------------------------------------------------------||

G|---------------------------------------------------------------------------||

Eb|---------7v-7v-------------7v-7v-------------7v-7v-------------10v-10v-----||

Bb|---------------------------------------------------------------------------||

F|-----8p7-------8p7-----8p7-------8p7-----8p7-------8p7-----8p7---------8p7-||

C|-0-0---------------0-0---------------0-0---------------0-0-----------------||

 

Riff B.

C|-----------------------------------------------------------------------------||

G|-----------------------------------------------------------------------------||

Eb|---------7v-7v-------------7v-7v-------------10v-10v-------------10v-10v-----||

Bb|-----------------------------------------------------------------------------||

F|-----8p7-------8p7-----8p7-------8p7-----8p7---------8p7-----8p7---------8p7-||

C|-0-0---------------0-0---------------0-0-----------------0-0-----------------||

 

 

Ending:

C|---||

G|---||

Eb|---||

Bb|-2-||

F|-2-||

C|-0-||

 

 

 

Return to my QOTSA tabs page

The Tablature is Copyright its respective owners.

Sign Up For My Newsletter
Subscribe | Unsubscribe

Site Map | Disclaimer | Privacy Policy | Media Kit | Submissions/Corrections

Website © 2000-2014 mattsmusicpage.com. All rights reserved.

Legal & DMCA: Matt's Music Page has been providing lyrics and tabs in a legal way, paying royalties each year to a few organizations. Then, all lyrics and tabs were removed from the site. Now, there's a new owner to the site, which purchased it August 26, 2014, and he is in negotiation to obtain licensing from BMI at the moment. If you have a specific DMCA request -- please do not hesitate to contact me via the contact button on top. I will do my very best to keep this site fully legal.

Get our toolbar!