Your One-Stop Source For
Music Lyrics
Bass and Guitar Tabs
and More...
Music Lyrics Bass and Guitar Tabs

 

The Tabs Are Below

Learn To Read Tab
Chords Handbook
Corrections & Additions
Get Official Tab
QOTSA tabs @ 911Tabs

Nobody does pop hooks to dreary music like Queens of the Stone Age. Another great song

off of Lullabies to Paralyze. In C tuning of course, and if it helps at all it's in 6/8

timing

 

Intro/Verse Rhythm (Clean)

A sh A mj F sh D sh

|--------------------------------|

|------7-------6------3----------|

|--------7-------6-----3----4----|

|----7----7---6---6--3--3----5---|

|---5--------4------1------5--5--|

|-------------------------3------|

 

Slide Lead Intro

|-----------------------------------|

|-----------------------------------|

|-7/10\7~---6\7/6-----------/12~----|

|--------------------2\3~-3\--------|

|-----------------------------------|

|-----------------------------------|

 

Intro Rhythm Cont.

A sh C mj C sh C sh

|-------------------------------------|

|----7------9-------10--------10------|

|-----7------9--------10--------10----|

|---7--7---9--9---10----10--10----10--|

|--5------7------8---------8----------|

|-------------------------------------|

 

Slide Lead Cont.

|-----------------------------|

|-13/15\10---10/12~---12/14~--|

|-----------------------------|

|-----------------------------|

|-----------------------------|

|-----------------------------|

 

Intro Rhythm Cont.

A sh A mj F sh D sh

|--------------------------------|

|------7-------6------3----------|

|--------7-------6-----3----4----|

|----7----7---6---6--3--3----5---|

|---5--------4------1------5--5--|

|-------------------------3------|

 

Slide Lead Cont.

|-10/13\10~--10/15~--15/17~--18~--|

|---------------------------------|

|---------------------------------|

|---------------------------------|

|---------------------------------|

|---------------------------------|

 

Intro Rhythm Cont.

A sh C mj C sh C sh

|-------------------------------------|

|----7------9-------10--------10------|

|-----7------9--------10--------10----|

|---7--7---9--9---10----10--10----10--|

|--5------7------8---------8----------|

|-------------------------------------|

 

Slide Lead Cont.

|-13/16\13--/16---/22-/22\21\14~--14/16\14\9~~~--|

|------------------------------------------------|

|------------------------------------------------|

|------------------------------------------------|

|------------------------------------------------|

|------------------------------------------------|

 

Verse (same picking pattern as above)

A sh A mj F sh D sh

You Otta Know Why You Feel So Hollow

 

Slide Lead

|-------------|

|-10/15~\10~--|

|-------------|

|-------------|

|-------------|

|-------------|

 

A sh A mj F sh D sh (carry out the "are")

Cause You Are------------------------

Slide

|-10/13~\10~--|

|-------------|

|-------------|

|-------------|

|-------------|

|-------------|

 

A sh A mj F sh D sh

You're Missing Out Well If You Say So

Slide

|-/15-------------------13/17~\13~~---|

|-------------------------------------|

|-------------------------------------|

|-------------------------------------|

|-------------------------------------|

|-------------------------------------|

A sh A mj D sh

When You're Missing Out-------------

Slide

|-13/16\13~~--------------------------/17~/19~/20/22~~~--|

|--------------------------------------------------------|

|--------------------------------------------------------|

|--------------------------------------------------------|

|--------------------------------------------------------|

|--------------------------------------------------------|

 

Chorus (Heavy Distorion)

Everybody---------------- Knows That You're In-

|---------------------------------------------------|

|---------------------------------------------------|

|-7-7-7-7-7-7-7-7-7-7-7-7-7-6-6-6-6-6-6-3-3-3-3-3-3-|

|-7-7-7-7-7-7-7-7-7-7-7-7-7-6-6-6-6-6-6-3-3-3-3-3-3-|

|-5-5-5-5-5-5-5-5-5-5-5-5-5-4-4-4-4-4-4-1-1-1-1-1-1-|

|---------------------------------------------------|

-Sane

|------------------------------------------------------|

|------------------------------------------------------|

|-----------7-------------7-------------7--------------|

|-5-5-5-5-5-7---5-5-5-5-5-7---5-5-5-5-5-7---5-5-5-5-5--|

|-5-5-5-5-5-5---5-5-5-5-5-5---5-5-5-5-5-5---5-5-5-5-5--|

|-3-3-3-3-3-0-0-3-3-3-3-3-0-0-3-3-3-3-3-0-0-3-3-3-3-3--| 2x

(the second guitar just follows in single notes an octive higher)

 

2nd Verse (the A sharp and A major have slight distorion)

 

You Otta Know

|------------------------------------------------------|

|------------------------------------------------------|

|-7-7--7-7-7--7-7-7--7-7-7--7-6-6--6-6-6--6-6-6--6-6-6-|

|-7-7--7-7-7--7-7-7--7-7-7--7-6-6--6-6-6--6-6-6--6-6-6-|

|-5-5--5-5-5--5-5-5--5-5-5--5-4-4--4-4-4--4-4-4--4-4-4-|

|------------------------------------------------------|

 

(the F sharp and the D sharp are heavily distorted)

 

Just How Long You Can Hide From--------

|-------------------------------------------------|

|-------------------------------------------------|

|-----------------------------------------------5-|

|-8-8-8-8-8-8-8-8-8-8-8-8-5-5-5-5-5-5-5-5-5-5-5-5-|

|-8-8-8-8-8-8-8-8-8-8-8-8-5-5-5-5-5-5-5-5-5-5-5-7-|

|-6-6-6-6-6-6-6-6-6-6-6-6-3-3-3-3-3-3-3-3-3-3-3---|

 

What You Are---------------------------------

|------------------------------------------------------|

|------------------------------------------------------|

|-7-7--7-7-7--7-7-7--7-7-7--7-9-9--9-9-9--9-9-9--9-9-9-|

|-7-7--7-7-7--7-7-7--7-7-7--7-9-9--9-9-9--9-9-9--9-9-9-|

|-5-5--5-5-5--5-5-5--5-5-5--5-7-7--7-7-7--7-7-7--7-7-7-|

|------------------------------------------------------|

 

Not Very Long

|-------------------------------------------------|

|-------------------------------------------------|

|-------------------------------------------------|

|-8-8-8-8-8-8-8-8-8-8-8-8-8-8-8-8-8-8-8-8-8-8-8-8-|

|-8-8-8-8-8-8-8-8-8-8-8-8-8-8-8-8-8-8-8-8-8-8-8-8-|

|-6-6-6-6-6-6-6-6-6-6-6-6-6-6-6-6-6-6-6-6-6-6-6-6-|

 

I Have Been Lost

|------------------------------------------------------|

|------------------------------------------------------|

|-7-7--7-7-7--7-7-7--7-7-7--7-6-6--6-6-6--6-6-6--6-6-6-|

|-7-7--7-7-7--7-7-7--7-7-7--7-6-6--6-6-6--6-6-6--6-6-6-|

|-5-5--5-5-5--5-5-5--5-5-5--5-4-4--4-4-4--4-4-4--4-4-4-|

|------------------------------------------------------|

 

Down Every--- Road I've Followed

|-------------------------------------------------|

|-------------------------------------------------|

|-------------------------------------------------|

|-8-8-8-8-8-8-8-8-8-8-8-8-5-5-5-5-5-5-5-5-5-5-5-5-|

|-8-8-8-8-8-8-8-8-8-8-8-8-5-5-5-5-5-5-5-5-5-5-5-5-|

|-6-6-6-6-6-6-6-6-6-6-6-6-3-3-3-3-3-3-3-3-3-3-3-3-|

 

Run in the Dark----------------

|------------------------------------------------------|

|------------------------------------------------------|

|-7-7--7-7-7--7-7-7--7-7-7--7-9-9--9-9-9--9-9-9--9-9-9-|

|-7-7--7-7-7--7-7-7--7-7-7--7-9-9--9-9-9--9-9-9--9-9-9-|

|-5-5--5-5-5--5-5-5--5-5-5--5-7-7--7-7-7--7-7-7--7-7-7-|

|------------------------------------------------------|

On My Way Home

|--------------------------------------------------------------------------|

|--------------------------------------------------------------------------|

|-----------------------------------7------------7------------7------------|

|-8-8-8-8-8-8-8-8-8-8-8-8-5-5-5-5-5-7--5-5-5-5-5-7--5-5-5-5-5-7--5-5-5-5-5-|

|-8-8-8-8-8-8-8-8-8-8-8-8-5-5-5-5-5-5--5-5-5-5-5-5--5-5-5-5-5-5--5-5-5-5-5-|

|-6-6-6-6-6-6-6-6-6-6-6-6-3-3-3-3-3--0-3-3-3-3-3--0-3-3-3-3-3--0-3-3-3-3-3-|

 

Chorus (Heavy Distorion)

Everybody---------------- Knows That You're In-

|---------------------------------------------------|

|---------------------------------------------------|

|-7-7-7-7-7-7-7-7-7-7-7-7-7-6-6-6-6-6-6-3-3-3-3-3-3-|

|-7-7-7-7-7-7-7-7-7-7-7-7-7-6-6-6-6-6-6-3-3-3-3-3-3-|

|-5-5-5-5-5-5-5-5-5-5-5-5-5-4-4-4-4-4-4-1-1-1-1-1-1-|

|---------------------------------------------------|

-Sane

|------------------------------------------------------|

|------------------------------------------------------|

|-----------7-------------7-------------7--------------|

|-5-5-5-5-5-7---5-5-5-5-5-7---5-5-5-5-5-7---5-5-5-5-5--|

|-5-5-5-5-5-5---5-5-5-5-5-5---5-5-5-5-5-5---5-5-5-5-5--|

|-3-3-3-3-3-0-0-3-3-3-3-3-0-0-3-3-3-3-3-0-0-3-3-3-3-3--| 4x

 

Bridge

 

Rhythm

|-----------------------------------------------|

|-----------------------------------------------|

|-3-3---3-3---3-3---3-3---7-7---7-7---5-5---5-5-|

|-3-3---3-3---3-3---3-3---7-7---7-7---5-5---5-5-|

|-1-1---1-1---1-1---1-1---5-5---5-5---3-3---3-3-|

|-----0-----0-----0-----0-----0-----0-----0-----|4x

 

Solo (oh boy, this could be pretty rough)

|-----------------------------------------8h10p8------12~-|

|-----------------------------------------------10p8------|

|-7^-5h7-7--5h7-7p5-7/9-9~--10--12^12^-10-----------9-----|

|--------------7------------------------------------------|

|---------------------------------------------------------|

|---------------------------------------------------------|

 

|-13^13^-10---10-17---------------------------|

|------------------18-15-17------15-----------|

|--------------------------17-14----14-10-7~--|

|---------------------------------------------|

|---------------------------------------------|

|---------------------------------------------|

 

And I Feel the Same And My Blood Ain't Yours (i think that's what he's

|-------------------------------------------------| saying, it's hard to hear

|-------------------------------------------------| his jumbled fucking

|-3-3-3-3-3-3-3-3-3-3-3-3-7-7-7-7-7-7-5-5-5-5-5-5-| voice)

|-3-3-3-3-3-3-3-3-3-3-3-3-7-7-7-7-7-7-5-5-5-5-5-5-|

|-1-1-1-1-1-1-1-1-1-1-1-1-5-5-5-5-5-5-3-3-3-3-3-3-|

|-------------------------------------------------| 3x

 

And I Feel the Same And My Blood Ain't Yours

|--------------------------------------------------|

|--------------------------------------------------|

|-3-3-3-3-3-3-3-3-3-3-3-3-----------7--------------|

|-3-3-3-3-3-3-3-3-3-3-3-3-5-5-5-5-5-7--5-5-5-5-5---|

|-1-1-1-1-1-1-1-1-1-1-1-1-5-5-5-5-5-7--5-5-5-5-5---|

|-------------------------3-3-3-3-3--0-3-3-3-3-3---| 1x

 

Chorus (Heavy Distorion)

Everybody---------------- Knows That You're In-

|---------------------------------------------------|

|---------------------------------------------------|

|-7-7-7-7-7-7-7-7-7-7-7-7-7-6-6-6-6-6-6-3-3-3-3-3-3-|

|-7-7-7-7-7-7-7-7-7-7-7-7-7-6-6-6-6-6-6-3-3-3-3-3-3-|

|-5-5-5-5-5-5-5-5-5-5-5-5-5-4-4-4-4-4-4-1-1-1-1-1-1-|

|---------------------------------------------------|

-Sane

|------------------------------------------------------|

|------------------------------------------------------|

|-----------7-------------7-------------7--------------|

|-5-5-5-5-5-7---5-5-5-5-5-7---5-5-5-5-5-7---5-5-5-5-5--|

|-5-5-5-5-5-5---5-5-5-5-5-5---5-5-5-5-5-5---5-5-5-5-5--|

|-3-3-3-3-3-0-0-3-3-3-3-3-0-0-3-3-3-3-3-0-0-3-3-3-3-3--| 4x

 

the end. this won't mean shit to anybody until the album comes out or you just "get it

from a friend" like i did, but this is pretty accurate. that solo may be a little off

but it fits just fine.

Return to my QOTSA tabs page

The Tablature is Copyright its respective owners.

Sign Up For My Newsletter
Subscribe | Unsubscribe

Site Map | Disclaimer | Privacy Policy | Media Kit | Submissions/Corrections

Website © 2000-2014 mattsmusicpage.com. All rights reserved.

Legal & DMCA: Matt's Music Page has been providing lyrics and tabs in a legal way, paying royalties each year to a few organizations. Then, all lyrics and tabs were removed from the site. Now, there's a new owner to the site, which purchased it August 26, 2014, and he is in negotiation to obtain licensing from BMI at the moment. If you have a specific DMCA request -- please do not hesitate to contact me via the contact button on top. I will do my very best to keep this site fully legal.

Get our toolbar!