Your One-Stop Source For
Music Lyrics
Bass and Guitar Tabs
and More...
Music Lyrics Bass and Guitar Tabs

 

The Tabs Are Below

Learn To Read Tab
Chords Handbook
Corrections & Additions
Get Official Tab
QOTSA tabs @ 911Tabs

Riff 1:

F|---------------------------------|

C|--3h5----------------------------|

G|---------------------------------|

C|------0-0-0-0-0--0-0-0-0-0--0-0--|

 

Riff 2:

F|----------------------------------------------------------------|

C|--3h5----------------------------5-3----------------------------|

G|---------------------------5-3-5--------------------------------|

C|------0-0-0-0-0--0-0-0-0-0-----------0-0-0-0-0--0-0-0-0-0--0-0--|

 

riff 3:

F|---------------------------------|-------|

C|--5-5-5-3--3-3-3-3-3-3-3-3-3-3-3-|-3-3-3-|

G|--5-5-5-3--3-3-3-3-3-3-3-3-3-3-3-|-3-3-3-|

C|--5-5-5-3--3-3-3-3-3-3-3-3-3-3-3-|-3-3-3-|

 

intro-drums then guitar

riff 1x2

riff 2

riff 1x3

riff 2

riff 1

riff 3x2

riff 1x2

riff 2

riff 1

riff 3x4

*pause*

riff 1x2

riff 2

riff 1

riff 3x2

 

 

Return to my QOTSA bass tabs page

The Tablature is Copyright its respective owners.

Sign Up For My Newsletter
Subscribe | Unsubscribe

Site Map | Disclaimer | Privacy Policy | Media Kit | Submissions/Corrections

Website © 2000-2014 mattsmusicpage.com. All rights reserved.

Legal & DMCA: Matt's Music Page has been providing lyrics and tabs in a legal way, paying royalties each year to a few organizations. Then, all lyrics and tabs were removed from the site. Now, there's a new owner to the site, which purchased it August 26, 2014, and he is in negotiation to obtain licensing from BMI at the moment. If you have a specific DMCA request -- please do not hesitate to contact me via the contact button on top. I will do my very best to keep this site fully legal.

Get our toolbar!