Your One-Stop Source For
Music Lyrics
Bass and Guitar Tabs
and More...
Music Lyrics Bass and Guitar Tabs

 

The Tabs Are Below

Learn To Read Tab
Chords Handbook
Corrections & Additions
Get Official Tab
QOTSA tabs @ 911Tabs

A Song For The Deaf

by Queens Of The Stone Age

from Songs For The Deaf

tabbed by Moe (mounir_karadja@hotmail.com)

 

 

Tabbed in regular E A D G - tuning. Wanna be true

to the QOTSA-style, do it yourself.

 

Great song.. took me almost no time at all to tab

(although the first version had a few mistakes..)

Takes a little time to get the timing right with

the open E (0 on E-string).

 

?| main|

G|---------------------------------------------|

D|---------------------------6---6-------------|

A|-------8-7-----8-7-----8-7-------8-7---------|

E|--0--------0-------0-------------------------|

 

 

Fantastic chorus..

?| x1| x2|

G|------------------------------|--------------|

D|------------------------------|--------------|

A|------------------------------|--------------|

E|-2--2--2-2-2-2--4--4--4-4-4-4-|-0--0--0-0-0-0|

 

 

During the guitar interludes, Nick plays some practically

unhearable stuff in the background, no reason why

you or I should want to play it exactly the way.

Just improvise.

 

Listen closely to the riff that comes next.. you'll

figure it out.

?| riff 2|

G|---------------------------------------------|

D|------------3--------------------------------|

A|---------------5-4---------------------------|

E|--0----4-5-----------------------------------|

 

 

 

I did say I was going to tab the "haha"-ending

thing.. it's practically just the same as

"Feel Good Hit Of The Summer", some seem to call it

"---- ---- haha -- --- ------". It goes:

 

?| ending|

G|---------------------------------------------|

D|---------------------------------------------|

A|---------5-(hold)----------------------------|

E|--555555-------------------------------------|

 

Those are the two tones used, figure the rest out yourself.

 

 

 

**King of bass!**

 

 

Return to my QOTSA bass tabs page

The Tablature is Copyright its respective owners.

Sign Up For My Newsletter
Subscribe | Unsubscribe

Site Map | Disclaimer | Privacy Policy | Media Kit | Submissions/Corrections

Website © 2000-2014 mattsmusicpage.com. All rights reserved.

Legal & DMCA: Matt's Music Page has been providing lyrics and tabs in a legal way, paying royalties each year to a few organizations. Then, all lyrics and tabs were removed from the site. Now, there's a new owner to the site, which purchased it August 26, 2014, and he is in negotiation to obtain licensing from BMI at the moment. If you have a specific DMCA request -- please do not hesitate to contact me via the contact button on top. I will do my very best to keep this site fully legal.

Get our toolbar!