Your One-Stop Source For
Music Lyrics
Bass and Guitar Tabs
and More...
Music Lyrics Bass and Guitar Tabs

 

The Tabs Are Below

Learn To Read Tab
Chords Handbook
Corrections & Additions
Get Official Tab
QOTSA tabs @ 911Tabs

THE BRONZE

As recorded by Queens Of The Stone Age

 

 

Words and Music by Queens Of The Stone Age

Transcribed by Kurt_Cobain_67

 

D C# E C#5

10 12 12 11 x x 9 11 11 10 x x 12 14 14 13 x x 9 11 11 x x x

 

C F#sus2 Eb G#sus2

8 10 10 9 8 8 x 9 11 11 9 9 11 13 13 12 x x x 11 13 13 11 11

 

Gtr I (C F Bb Eb G C) - 'Gtr.1 (w/tremolo)'

Gtr II (C F Bb Eb G C) - 'Gtr.2 (w/tremolo)'

Gtr III (C F Bb Eb G C) - 'Gtr.3'

Gtr IV (C F Bb Eb G C) - 'Gtr.4'

Gtr V (C F Bb Eb G C) - 'Gtr.5 (w/whammy)'

 

Intro

Q=64

D

4/4

Gtr I

E E E E +H +E Q. E E E E

|---------------------|----------------------------|

|---------------------|----------------------------|

|----------11-(11)----|-(11)-----------11----11----|

|-------12------------|-------------------12----12-|

|----12---------------|----------------------------|

|-10------------------|------10--------------------|

|

| Gtr II

| E E E E +H +E E E E H

|---------------------|----------------------------|

|---------------------|----------------------------|

|----------11-(11)----|-(11)-11--------------------|

|-------12------------|----------12----------------|

|----12---------------|-------------12-------------|

|-10------------------|----------------10----------|

 

 

C#

E E E E +Q. E +E +E +E E E E E E

|----------------------------|------------------------------|

|----------------------------|------------------------------|

|----------10-(10)---10b11---|-(10)-(10)r(10)----8h10S11s13-|

|-------11-------------------|------------------------------|

|----11----------------------|------------------------------|

|--9-------------------------|------------------------------|

|

| E E E E +Q. E +Q +Q E E E E

|----------------------------|------------------------------|

|----------------------------|------------------------------|

|----------10-(10)---10b10.5-|-(10)------(10)r---8h10S11s13-|

|-------11-------------------|------------------------------|

|-11-11----------------------|------------------------------|

|--9-------------------------|------------------------------|

 

 

D

E E E E +H +Q. E E E Q

|---------------------|------------------------|

|---------------------|------------------------|

|----------11-(11)----|-(11)------11----13b15r=|

|-------12------------|---------------x--------|

|----12---------------|------------------------|

|-10------------------|--------10--------------|

|

| E E E E +H +Q. E E E Q

|---------------------|------------------------|

|---------------------|------------------------|

|----------11-(11)----|-(11)------11----13b15r=|

|-------12------------|--------------12--------|

|----12---------------|------------------------|

|-10------------------|--------10--------------|

 

 

C#

E E E E +Q. E +Q +E +E +H

|----------------------------|--------------------------||

|----------------------------|--------------------------||

|----------10-(10)---10b11---|-(10)--(10)r=(10)-(10)----||

|-------11-------------------|--------------------------||

|----11----------------------|--------------------------||

|--9-------------------------|--------------------------||

|

| E E E E +Q. E +Q +Q +H

|----------------------------|--------------------------||

|----------------------------|--------------------------||

|----------10-(10)---10b10.5-|-(10)--(10)r------(10)----||

|-------11-------------------|--------------------------||

|-11-11----------------------|--------------------------||

|--9-------------------------|--------------------------||

 

 

Intro II

Fast Rock Q=154

D C#

Gtr III

E E Q E E E E +H. +E S S

| | | | | | | | | | |

/ / / / / / / / / / /

 

Gtr IV

E E Q E E E E +E Q E +E E E S S

|--10--10-10-------------10-|-(10)-----10-(10)----10-------|

|--10--10-10--10-10--10--10-|-(10)-10--10-(10)-10-10-------|

|--11--11-11--11-11--11--11-|-(11)-11--11-(11)-11-11-------|

|--12--12-12--12-12--12--12-|-(12)-12--12-(12)-12-12-11-11-|

|---------------------------|------------------------11-11-|

|---------------------------|-------------------------9--9-|

|

| Gtr V

| H. +E E +W

|---------------------------|------------------------------|

|---------------------------|------------------------------|

|-/16---------------(16)s=7-|--(7)-------------------------|

|---------------------------|------------------------------|

|---------------------------|------------------------------|

|---------------------------|------------------------------|

 

 

D

W +H. +E S S

| | | | |

/ / / / /

 

Q Q E E E E +E Q E +E E E S S

|--------9--------------9-|--(9)------9--(9)--------------|

|--------9--------------9-|--(9)------9--(9)--------------|

|--10---10--10-10--10--10-|-(10)-10--10-(10)-10-10-10-10--|

|--11---11--11-11--11-----|------11--11-(11)-11-11-11-11--|

|--11-------11-11--11-----|------11----------11-11-11-11--|

|---9--------9--9---9-----|-------9-----------9--9--9--9--|

|

| H. +E E +W

|-------------------------|-------------------------------|

|-------------------------|-------------------------------|

|-/16-------------(16)s=6-|--(6)--------------------------|

|-------------------------|-------------------------------|

|-------------------------|-------------------------------|

|-------------------------|-------------------------------|

 

 

E C#

W +H +E E E S S

| | | | | | |

/ / / / / / /

 

Q Q E E E E +E Q E +Q. S S

|-------10-------------10-|-(10)-----10-(10)-----10-10-|

|-------10-------------10-|-(10)-10--10-(10)-----10-10-|

|--11---11--11-11--11--11-|-(11)-11--11-(11)-----11-11-|

|--12---12--12-12--12--12-|-(12)-12--12-(12)-----------|

|--12-------12-12--12-----|------12--------------------|

|--10-------10-10--10-----|------10--------------------|

|

| H. +E E +W

|-------------------------|----------------------------|

|-------------------------|----------------------------|

|-/16-------------(16)s=7-|--(7)-----------------------|

|-------------------------|----------------------------|

|-------------------------|----------------------------|

|-------------------------|----------------------------|

 

 

W +H +E E Q

| | | | |

/ / / x o

 

Q Q E E E E +E Q E +E E E S S

|--------9--------------9-|--(9)------9--(9)--------------|

|--------9--------------9-|--(9)------9--(9)--------------|

|--10---10--10-10--10--10-|-(10)-10--10-(10)-10-10-10-10--|

|--11---11--11-11--11-----|------11--11-(11)-11-11-11-11--|

|--11-------11-11--11-----|------11----------11-11-11-11--|

|---9--------9--9---9-----|-------9-----------9--9--9--9--|

|

| H. +E E +W

|-------------------------|-------------------------------|

|-------------------------|-------------------------------|

|-/16-------------(16)s=6-|--(6)--------------------------|

|-------------------------|-------------------------------|

|-------------------------|-------------------------------|

|-------------------------|-------------------------------|

 

 

D

Gtr III

~~~~~~~~~~~~~~~~~~~~~~~~~~~~~~~~~~~~~

Q. E +Q Q +E Q. E E E E

|-----------------------------|----------------------------|

|-----------------------------|----------------------------|

|--11------11-(11)-----11-----|-(11)-11-------11s=13-13s10-|

|-----------------------------|----------------------------|

|-----------------------------|----------------------------|

|-----------------------------|----------------------------|

|

| Gtr IV

| Q Q E E E E +E Q E +E E E E

|-------10-----------------10-|-(10)--------------10-10----|

|-------10-----------------10-|-(10)--------------10-10--x-|

|--11---11-----11--11--11--11-|-(11)-11---11-(11)-11-11--x-|

|--12---12-----12--12--12--12-|-(12)-12---12-(12)-12-12--x-|

|--12----------12--12--12-----|------12---12-(12)----------|

|--10----------10--10--10-----|------10---10-(10)----------|

|

| Gtr V

| H. +E E +W

|-----------------------------|----------------------------|

|-----------------------------|----------------------------|

|-/16-----------------(16)s=7-|--(7)-----------------------|

|-----------------------------|----------------------------|

|-----------------------------|----------------------------|

|-----------------------------|----------------------------|

 

 

C#

~~~~~~~~~~~~~~~

Q. E +E E E E +Q +Q +E E E E

|--------------------------------|--------------------------------------|

|--------------------------------|--------------------------------------|

|--10------10-(10)-----10--10b11-|-(10)pb11r===(10)----(10)----10-11----|

|------------------13------------|--------------------------13----------|

|--------------------------------|--------------------------------------|

|--------------------------------|--------------------------------------|

|

| Q Q E E E E +E Q E +E E E S S

|--------9------------------9----|--(9)--------------9--(9)-------------|

|--------9------------------9----|--(9)--------------9--(9)-------------|

|--10---10-----10--10--10--10----|-(10)-----10------10-(10)-10-10-10-10-|

|--11---11-----11--11--11--------|----------11------11-(11)-11-11-11-11-|

|--11----------11--11--11--------|----------11--------------11-11-11-11-|

|---9-----------9---9---9--------|-----------9---------------9--9--9--9-|

|

| H. +E E +W

|--------------------------------|--------------------------------------|

|--------------------------------|--------------------------------------|

|-/16-----------------(16)s=6----|--(6)---------------------------------|

|--------------------------------|--------------------------------------|

|--------------------------------|--------------------------------------|

|--------------------------------|--------------------------------------|

 

 

D

~~~~~~~~~~~~~~~~~~~~~~~~~~~~~~~~~~~~~ ~~~~~

Q. E +Q Q +E Q. E E Q

|-----------------------------|---------------------------|

|-----------------------------|---------------------------|

|--11------11-(11)-----11-----|-(11)-11-------11s=13-13---|

|-----------------------------|---------------------------|

|-----------------------------|---------------------------|

|-----------------------------|---------------------------|

|

| Q Q E E E E +E Q E +E E E E

|-------10-----------------10-|-(10)--------------10-10---|

|-------10-----------------10-|-(10)--------------10-10-x-|

|--11---11-----11--11--11--11-|-(11)-11---11-(11)-11-11-x-|

|--12---12-----12--12--12--12-|-(12)-12---12-(12)-12-12-x-|

|--12----------12--12--12-----|------12---12-(12)---------|

|--10----------10--10--10-----|------10---10-(10)---------|

|

| H. +E E +W

|-----------------------------|---------------------------|

|-----------------------------|---------------------------|

|-/16-----------------(16)s=7-|--(7)----------------------|

|-----------------------------|---------------------------|

|-----------------------------|---------------------------|

|-----------------------------|---------------------------|

 

 

C#

~~~~~~~~~~~~~~~~~~ ~~~~~~~~~~~~~~~~~~~

Q. E +E E E a E +E E +H +E +E

|--------------------------------|---------------------------------------------||

|--------------------------------|---------------------------------------------||

|--10------10-(10)-----10--10s13-|-(13)-13b14r(13)------------(13)----(13)\----||

|------------------13------------|---------------------------------------------||

|--------------------------------|---------------------------------------------||

|--------------------------------|---------------------------------------------||

|

| Q Q E E E E +E E E E +E E S S S S

|--------9---------------------9-|--(9)----------------------------------------||

|--------9---------------------9-|--(9)----------------------------------------||

|--10---10-----10--10--10-----10-|-(10)-10-----10--10-(10)-10--10--10--10---10-||

|--11---11-----11--11--11--------|------11-----11--11-(11)-11--11--11--11---11-||

|--11----------11--11--11--------|------11-----11--11-(11)-11--11--11--11---11-||

|---9-----------9---9---9--------|-------9------9---9--(9)--9---9---9---9----9-||

|

| H. +E E +W

|--------------------------------|---------------------------------------------||

|--------------------------------|---------------------------------------------||

|-/16-----------------(16)s====6-|--(6)----------------------------------------||

|--------------------------------|---------------------------------------------||

|--------------------------------|---------------------------------------------||

|--------------------------------|---------------------------------------------||

 

 

Verse

D C#

Gtr III

W +H. +E S S

| | | | |

/ / / / /

 

Gtr IV

Q Q E E E E +E Q E +E E E E

|-----10-----------10-|-(10)-------------10-10-----|

|-----10-----------10-|-(10)-------------10-10-x---|

|-11--11--11-11-11-11-|-(11)-11--11-(11)-11-11-x---|

|-12--12--12-12-12-12-|-(12)-12--12-(12)-12-12-x---|

|-12------12-12-12----|------12--12-(12)-----------|

|-10------10-10-10----|------10--10-(10)-----------|

 

 

W +H. +E S S

| | | | |

/ / / / /

 

Q Q E E E E +E Q E +E E E S S

|------9------------9-|--(9)------9--(9)--------------|

|------9------------9-|--(9)------9--(9)--------------|

|-10--10--10-10-10-10-|-(10)-10--10-(10)-10-10-10-10--|

|-11--11--11-11-11----|------11--11-(11)-11-11-11-11--|

|-11------11-11-11----|------11----------11-11-11-11--|

|--9-------9--9--9----|-------9-----------9--9--9--9--|

 

 

D E

W +H +E E Q

| | | | |

/ / / / /

 

Q Q E E E E +E Q E +E E E E

|-----10-----------10-|-(10)-------------10-10---|

|-----10-----------10-|-(10)-------------10-10-x-|

|-11--11--11-11-11-11-|-(11)-11--11-(11)-11-11-x-|

|-12--12--12-12-12-12-|-(12)-12--12-(12)-12-12-x-|

|-12------12-12-12----|------12--12-(12)---------|

|-10------10-10-10----|------10--10-(10)---------|

 

 

C# D

W +H. +E E

| | | |

/ / / /

 

Q Q E E E E +E Q E +E E E S S

|------9------------9-|--(9)-------------------------|

|------9------------9-|--(9)--9----------------------|

|-10--10--10-10-10-10-|-(10)-10--10-(10)-10-10-10-10-|

|-11--11--11-11-11----|------11--11-(11)-11-11-11-11-|

|-11------11-11-11----|----------11-(11)-11-11-11-11-|

|--9-------9--9--9----|-----------9--(9)--9--9--9--9-|

 

 

C#

W +H. +E S S

| | | | |

/ / / / /

 

Q Q E E E E +E Q E +H

|-----10-----------10-|-(10)---------------------|

|-----10-----------10-|-(10)---------------------|

|-11--11--11-11-11-11-|-(11)-11--11-(11)---------|

|-12--12--12-12-12-12-|-(12)-12--12-(12)---------|

|-12------12-12-12----|------12--12-(12)---------|

|-10------10-10-10----|------10--10-(10)---------|

 

 

D

W +H. +E S S

| | | | |

/ / / / /

 

Q Q E E E E +E Q E +E E E S S

|------9------------9-|--(9)--------------------------|

|------9------------9-|--(9)--------------------------|

|-10--10--10-10-10-10-|-(10)-10--10-(10)-10-10-10-10--|

|-11--11--11-11-11-11-|-(11)-11--11-(11)-11-11-11-11--|

|-11------11-11-11----|------11--11-(11)-11-11-11-11--|

|--9-------9--9--9----|-------9---9--(9)--9--9--9--9--|

 

 

E

W +Q. E E E Q

| | | | |

/ / / / /

 

Q Q E E E E +E Q E +E E E E

|-----10-----------10-|-(10)-----10-(10)----10-10-|

|-----10-----------10-|-(10)-----10-(10)----10-10-|

|-11--11--11-11-11-11-|-(11)-11--11-(11)-11-11-11-|

|-12--12--12-12-12-12-|-(12)-12--12-(12)-12-12-12-|

|-12------12-12-12----|------12----------12-------|

|-10------10-10-10----|------10----------10-------|

 

 

C#5

W +H +E +E Q

| | | | |

/ / / / o

 

Q Q E E E E +E E E E +E E E S S

|------9------------9-|--(9)--------9--(9)-------------||

|------9------------9-|--(9)--------9--(9)-------------||

|-10--10--10-10-10-10-|-(10)-10-10-10-(10)-10-10-10-10-||

|-11--11--11-11-11----|------11-11-11-(11)-11-11-11-11-||

|-11------11-11-11----|------11-11-11-(11)-11-11-11-11-||

|--9-------9--9--9----|-------9--9--9--(9)--9--9--9--9-||

 

 

Guitar Solo

D

Gtr III

E E E E E E E E E E E E E E E E

|-------------------------|-----------------------------|

|-------------------------|-----------------------------|

|-11s13-13s14-14s13-13s16-|--16s=14-14s13--13s=11-11s18-|

|-------------------------|-----------------------------|

|-------------------------|-----------------------------|

|-------------------------|-----------------------------|

|

| Gtr IV

| Q Q E E E E +E Q E +E E E E

|-------10-------------10-|-(10)------------------------|

|-------10-------------10-|-(10)-10---------------------|

|-11----11----11-11-11-11-|-(11)-11----11-(11)-11-11-11-|

|-12----12----12-12-12-12-|-(12)-12----12-(12)-12-12-12-|

|-12----------12-12-12----|------------12-(12)-12-12-12-|

|-10----------10-10-10----|------------10-(10)-10-10-10-|

 

 

C#

E E E E E E E E +E E +Q +E E E E

|-------------------------|-------------------------------------|

|-------------------------|-------------------------------------|

|-18s16-16s14-14s13-13-13-|-(13)-13b14r(13)----(13)-13-13s11----|

|-------------------------|-------------------------------------|

|-------------------------|-------------------------------------|

|-------------------------|-------------------------------------|

|

| Q Q E E E E +E Q E +E E E S S

|--------9--------------9-|--(9)--------------------------------|

|--------9--------------9-|--(9)--9-----------------------------|

|-10----10----10-10-10-10-|-(10)-10---------10-(10)-------------|

|-11----11----11-11-11-11-|-(11)-11---------11-(11)-11-11-11-11-|

|-11----------11-11-11----|-----------------11-(11)-11-11-11-11-|

|--9-----------9--9--9----|------------------9--(9)--9--9--9--9-|

 

 

D

~~~~~~~~~~~~~~~~~~~~~~~~~~~~~~~~~~~

Q. E +Q Q +E Q. E E E E

|--------------------------|----------------------------|

|--------------------------|----------------------------|

|-11------11-(11)----11----|-(11)-11-------11s=13-13s10-|

|--------------------------|----------------------------|

|--------------------------|----------------------------|

|--------------------------|----------------------------|

|

| Q Q E E E E +E Q E +E E E E

|------10---------------10-|-(10)-----------------------|

|------10---------------10-|-(10)-----------------------|

|-11---11-----11--11-11-11-|-(11)-11---11-(11)-11-11-11-|

|-12---12-----12--12-12-12-|-(12)-12---12-(12)-12-12-12-|

|-12----------12--12-12----|------12---12-(12)-12-12-12-|

|-10----------10--10-10----|------10---10-(10)-10-10-10-|

 

 

C#

~~~~~~~~~~~~~~~ ~~~~

Q. E +E E E E +H +E E E E

|--------------------------|----------------------------|

|--------------------------|----------------------------|

|-10------10-(10)----10-10-|-(10)--------(10)S13-13-13--|

|-----------------13-------|----------------------------|

|--------------------------|----------------------------|

|--------------------------|----------------------------|

|

| Q Q E E E E +E Q E +E E E E

|-------9----------------9-|--(9)------9--(9)-----------|

|-------9----------------9-|--(9)------9--(9)-----------|

|-10---10-----10--10-10-10-|-(10)-10--10-(10)-----------|

|-11---11-----11--11-11----|------11--11-(11)-11-11-11--|

|-11----------11--11-11----|------11--11-(11)-11-11-11--|

|--9-----------9---9--9----|-------9---9--(9)--9--9--9--|

 

 

D

~~

Q. E +Q Q +E E E E E E E E

|----------------------------|--------------------------------|

|----------------------------|--------------------------------|

|-13b14-----13-(13)----11----|-(11)-11b13rp9------9--11s13-13-|

|----------------------------|---------------11---------------|

|----------------------------|--------------------------------|

|----------------------------|--------------------------------|

|

| Q Q E E E E +E Q E +E E E E

|--------10---------------10-|-(10)----------10-(10)----------|

|--------10---------------10-|-(10)----------10-(10)----------|

|-11-----11-----11--11-11-11-|-(11)-11-------11-(11)-11-11-11-|

|-12-----12-----12--12-12-12-|-(12)-12-------12-(12)-12-12-12-|

|-12------------12--12-12----|------12---------------12-12-12-|

|-10------------10--10-10----|------10---------------10-10-10-|

 

 

C#

~~~~~~~ ~~~~~~~~~~~ ~~

Q. E +E E E a E +E E +Q +E E E E

|-------------------------------|----------------------------------|

|-------------------------------|-------------------------------14-|

|-13b14-----13-(13)-11-13-13s16-|-(16)-16b17r(16)----(16)-14-16----|

|-------------------------------|----------------------------------|

|-------------------------------|----------------------------------|

|-------------------------------|----------------------------------|

|

| Q Q E E E E +E Q E +E E E E

|---------9-------------------9-|--(9)-------------9--(9)----------|

|---------9-------------------9-|--(9)-------------9--(9)----------|

|-10-----10-----10--10-10----10-|-(10)-10---------10-(10)----------|

|-11-----11-----11--11-11----11-|-(11)-11---------11-(11)-11-11-11-|

|-11------------11--11-11-------|------11-----------------11-11-11-|

|--9-------------9---9--9-------|-------9------------------9--9--9-|

 

 

D

~~~~

+E E S S E E S S E E S S E E S S E E S S E

|---------------------------------|--------------------------------------|

|-(14)-14-17p14----14-17p14----14-|--17p=14----14-17p14------14-17p14----|

|---------------16----------16----|---------16-----------16-----------16-|

|---------------------------------|--------------------------------------|

|---------------------------------|--------------------------------------|

|---------------------------------|--------------------------------------|

|

| Q Q E E E E +E Q E +E E E E

|---------10-------------------10-|-(10)----------10----(10)-------------|

|---------10-------------------10-|-(10)----------10----(10)-------------|

|--11-----11-------11-11----11-11-|-(11)----11----11----(11)-11-11----11-|

|--12-----12-------12-12----12-12-|-(12)----12----12----(12)-12-12----12-|

|--12--------------12-12----12----|---------12---------------12-12----12-|

|--10--------------10-10----10----|---------10---------------10-10----10-|

 

 

C#

S S E S S E S S E S S E S S E S S E S E. E E

|-------------------------------------|------------------------------------------||

|-17p14----17p14----17p14----17p14----|--17p=14----17p14-----17p=14-----14\------||

|-------16-------16-------16-------16-|---------16-------16----------------------||

|-------------------------------------|--------------------------------------x---||

|-------------------------------------|------------------------------------------||

|-------------------------------------|------------------------------------------||

|

| Q Q E E E E +E E E E +E E E E

|-----------9-----------------------9-|--(9)--------------9--(9)-----------------||

|-----------9-----------------------9-|--(9)--------------9--(9)-----------------||

|-10-------10-------10----10-10----10-|-(10)----10-10----10-(10)-----10-10--10---||

|-11-------11-------11----11-11-------|---------11-11----11-(11)-----11-11--11---||

|-11----------------11----11-11-------|---------11-11----11-(11)-----11-11--11---||

|--9-----------------9-----9--9-------|----------9--9-----9--(9)------9--9---9---||

 

 

Interlude

C

Gtrs III, IV

PM--------------------------------|

E E E E E E E E E E E E E E E E

|-------------------------|-------------------------|

|-------------------------|-------------------------|

|-------------------------|--------------9--9--9--9-|

|-------------------------|-------10-10-10-10-10-10-|

|-10-10-10-10-10-10-10-10-|-10-10-10-10-10-10-10-10-|

|--8--8--8--8--8--8--8--8-|--8--8--8--8--8--8--8--8-|

 

 

E E E E E E E E E E E E E E Q

|-------------------------|--------------8--8-----||

|--8--8--8--8--8--8--8--8-|--8--8--8--8--8--8-----||

|--9--9--9--9--9--9--9--9-|--9--9--9--9--9--9-----||

|-10-10-10-10-10-10-10-10-|-10-10-10-10-10-10-----||

|-10-10-10-10-10-10-10-10-|-10-10-10-10-10-10-----||

|--8--8--8--8--8--8--8--8-|--8--8--8--8--8--8-----||

 

 

Guitar Solo

D

Gtr IV

Q Q E E E E +E Q E +E E E E

|--------10--------------10-|-(10)--------------10-10-x-|

|--------10--------------10-|-(10)--------------10-10-x-|

|--11----11---11-11--11--11-|-(11)-11---11-(11)-11-11-x-|

|--12----12---12-12--12--12-|-(12)-12---12-(12)-12-12-x-|

|--12---------12-12--12-----|------12---12-(12)---------|

|--10---------10-10--10-----|------10---10-(10)---------|

|

| Gtr III

| E E E E E E E E +E E Q E E E E

|---------------------------|---------------------------|

|---------------------------|---------------------------|

|---------------------------|---------------------------|

|-----------0--4--0---0---6-|--(6)--4-0------6---0--4-6-|

|---0--2--4-----------------|---------------------------|

|---------------------------|---------------------------|

|

| Gtr V

| H. +E E +W

|---------------------------|---------------------------|

|---------------------------|---------------------------|

|-/16---------------(16)s=7-|--(7)----------------------|

|---------------------------|---------------------------|

|---------------------------|---------------------------|

|---------------------------|---------------------------|

 

 

C#

Q Q E E E E +E Q E +E E E S S

|---------9---------------9-|--(9)---------------------------|

|---------9---------------9-|--(9)--9------------------------|

|--10----10---10-10--10--10-|-(10)-10--10-(10)---------------|

|--11----11---11-11--11--11-|-(11)-11--11-(11)-11-11-11---11-|

|--11---------11-11--11-----|----------11-(11)-11-11-11---11-|

|---9----------9--9---9-----|-----------9--(9)--9--9--9----9-|

|

| E E E E E E E E +H +E E E E

|---------------------------|--------------------------------|

|---------------------------|--------------------------------|

|-----------------6---6-----|--------------------------------|

|---7--6--4-4--4----------6-|--(6)---------(6)--4--6--6b7----|

|---------------------------|--------------------------------|

|---------------------------|--------------------------------|

|

| H. +E E +W

|---------------------------|--------------------------------|

|---------------------------|--------------------------------|

|-/16---------------(16)s=6-|--(6)---------------------------|

|---------------------------|--------------------------------|

|---------------------------|--------------------------------|

|---------------------------|--------------------------------|

 

 

D

Q Q E E E E +E Q E +E E E E

|-------10--------------10---|-(10)--------------10-10-x-|

|-------10--------------10---|-(10)--------------10-10-x-|

|--11---11---11-11--11--11---|-(11)-11---11-(11)-11-11-x-|

|--12---12---12-12--12--12---|-(12)-12---12-(12)-12-12-x-|

|--12--------12-12--12-------|------12---12-(12)---------|

|--10--------10-10--10-------|------10---10-(10)---------|

|

| Q E E E E E S S E E E E E E E E

|----------------------------|---------------------------|

|----------------------------|---------------------------|

|-------------4------4---6p4-|-------4-6--7---7---6--7-6-|

|---6----4-6-----6-----------|---6-----------------------|

|----------------------------|---------------------------|

|----------------------------|---------------------------|

|

| H. +E E +W

|----------------------------|---------------------------|

|----------------------------|---------------------------|

|-/16--------------(16)s=7---|--(7)----------------------|

|----------------------------|---------------------------|

|----------------------------|---------------------------|

|----------------------------|---------------------------|

 

 

C#

Q Q E E E E +E Q E +E E E E

|---------9------------------9---|--(9)--------------9--9-x-|

|---------9------------------9---|--(9)--------------9--9-x-|

|--10----10------10-10--10--10---|-(10)-10--10-(10)-10-10-x-|

|--11----11------11-11--11--11---|-(11)-11--11-(11)-11-11-x-|

|--11------------11-11--11-------|------11--11-(11)---------|

|---9-------------9--9---9-------|-------9---9--(9)---------|

|

| ~~~~

| E E E E Q E E +Q. E E E E E

|--------------------------------|----------------------7---|

|---5--7--5-7b9rp=5------5---7b9r|==(7)------5---7--------5-|

|--------------------------------|-------------------6------|

|--------------------------------|--------------------------|

|--------------------------------|--------------------------|

|--------------------------------|--------------------------|

|

| H. +E E +W

|--------------------------------|--------------------------|

|--------------------------------|--------------------------|

|-/16------------------(16)s=6---|--(6)---------------------|

|--------------------------------|--------------------------|

|--------------------------------|--------------------------|

|--------------------------------|--------------------------|

 

 

D

Q Q E E E E +E Q E +E E E E

|--------10--------------10-|-(10)------10-(10)----------|

|--------10--------------10-|-(10)------10-(10)----------|

|--11----11---11-11--11--11-|-(11)-11---11-(11)-11-11-11-|

|--12----12---12-12--12--12-|-(12)-12---12-(12)-12-12-12-|

|--12---------12-12--12-----|------12-----------12-12-12-|

|--10---------10-10--10-----|------10-----------10-10-10-|

|

| E E E E E E E E E E E E E E E E

|--------------7------------|----------------7-----------|

|---5--7----5---------7---5-|-------7----7----------5--7-|

|---------6-------6---------|---6-----0----------6-------|

|---------------------------|----------------------------|

|---------------------------|----------------------------|

|---------------------------|----------------------------|

|

| H. +E E +W

|---------------------------|----------------------------|

|---------------------------|----------------------------|

|-/16---------------(16)s=7-|--(7)-----------------------|

|---------------------------|----------------------------|

|---------------------------|----------------------------|

|---------------------------|----------------------------|

 

 

C#

Q Q E E E E +E Q E +E E E E

|---------9-----------------|-------9------------9---------|

|---------9-----------------|-------9------------9--9------|

|--10----10---10-10--10--10-|-(10)-10---10-(10)-10-10------|

|--11----11---11-11--11--11-|-(11)-11---11-(11)-11-11-11---|

|--11---------11-11--11--11-|-(11)------11-(11)-------11---|

|---9----------9--9---9---9-|--(9)-------9--(9)--------9---|

|

| E E E E E E E E E E E E E E E E

|---------------------------|----------------7-------------|

|------4--5-4--0--5------/7-|---5---7----5-------5-----7s==|

|---6-----------------------|---------6-------------6------|

|---------------------------|------------------------------|

|---------------------------|------------------------------|

|--------------------(4)----|------------------------------|

|

| H. +E E +W

|---------------------------|------------------------------|

|---------------------------|------------------------------|

|-/16---------------(16)s=6-|--(6)-------------------------|

|---------------------------|------------------------------|

|---------------------------|------------------------------|

|---------------------------|------------------------------|

 

 

D

Q Q E E E E +E Q E +E E E E

|--------10----------------10-|-(10)------10-(10)----------|

|--------10----------------10-|-(10)------10-(10)----------|

|--11----11-----11-11--11--11-|-(11)-11---11-(11)-11-11-11-|

|--12----12-----12-12--12--12-|-(12)-12---12-(12)-12-12-12-|

|--12-----------12-12--12-----|------12-----------12-12-12-|

|--10-----------10-10--10-----|------10-----------10-10-10-|

|

| E E S S E E E E E E E E E E E E E

|-----------------------------|----------------------------|

|---9--7--9p7----7--9s=12---9-|--12-----9-----12-----------|

|-------------x---------------|------11---11------11-------|

|-----------------------------|-----------------------9-11-|

|-----------------------------|----------------------------|

|-----------------------------|----------------------------|

|

| H. +E E +W

|-----------------------------|----------------------------|

|-----------------------------|----------------------------|

|-/16-----------------(16)s=7-|--(7)-----------------------|

|-----------------------------|----------------------------|

|-----------------------------|----------------------------|

|-----------------------------|----------------------------|

 

 

C#

Q Q E E E E +E E E E +E E E E

|----------9-------------------9-|--(9)------------9--(9)------------||

|----------9-------------------9-|--(9)------------9--(9)------------||

|--10-----10-------10-10--10--10-|-(10)---10--10--10-(10)-10-10--10--||

|--11-----11-------11-11--11-----|--------11--11--11-(11)-11-11--11--||

|--11--------------11-11--11-----|--------11--11----------11-11--11--||

|---9---------------9--9---9-----|---------9---9-----------9--9---9--||

|

| TP TP

| |--3--|

| E E E E E E E E E E E H Q

|------------------------------9-|--12b13--9/-12/--------------------||

|------------------12--9--12-----|---------x---x-------------(0)-----||

|--12-----11-11-11---------------|---------x---x-------------(0)-----||

|------11------------------------|---------------------------(0)-----||

|--------------------------------|-----------------------------------||

|--------------------------------|-----------------------------------||

|

| H. +E E +W

|--------------------------------|-----------------------------------||

|--------------------------------|-----------------------------------||

|-/16--------------------(16)s=6-|--(6)------------------------------||

|--------------------------------|-----------------------------------||

|--------------------------------|-----------------------------------||

|--------------------------------|-----------------------------------||

 

 

Verse

D C#

Gtr III

W +H. +E S S

| | | | |

/ / / / /

 

Gtr IV

Q Q E E E E +E Q E +E E E E

|-----10-----------10-|-(10)-----------------------|

|-----10-----------10-|-(10)-------------------x---|

|-11--11--11-11-11-11-|-(11)-11--11-(11)-11-11-x---|

|-12--12--12-12-12-12-|-(12)-12--12-(12)-12-12-x---|

|-12------12-12-12----|------12--12-(12)-12-12-----|

|-10------10-10-10----|------10--10-(10)-10-10-----|

 

 

W +H. +E S S

| | | | |

/ / / / /

 

Q Q E E E E +E Q E +E E E E

|------9------------9-|--(9)-------------------------|

|------9------------9-|--(9)-------------------------|

|-10--10--10-10-10-10-|-(10)-10--10-(10)-10-10-10----|

|-11--11--11-11-11-11-|-(11)-11--11-(11)-11-11-11----|

|-11------11-11-11----|------11--11-(11)-11-11-11----|

|--9-------9--9--9----|-------9---9--(9)--9--9--9----|

 

 

D E C#

W +H +E E E E

| | | | | |

/ / / / / /

 

Q Q E E E E +E E E E +E E E E

|-----10-----------10-|-(10)---------------10-10---|

|-----10-----------10-|-(10)---------------10-10-x-|

|-11--11--11-11-11-11-|-(11)-11-11-11-(11)-11-11-x-|

|-12--12--12-12-12-12-|-(12)-12-12-12-(12)-12-12-x-|

|-12------12-12-12----|------12-12-12-(12)---------|

|-10------10-10-10----|------10-10-10-(10)---------|

 

 

D

W +H. +E S S

| | | | |

/ / / / /

 

Q Q E E E E +E Q E +E E E E

|------9------------9-|--(9)------------------------|

|------9------------9-|--(9)------------------------|

|-10--10--10-10-10-10-|-(10)-10--10-(10)-10-10-10---|

|-11--11--11-11-11-11-|-(11)-11--11-(11)-11-11-11---|

|-11------11-11-11----|------11--11-(11)-11-11-11---|

|--9-------9--9--9----|-------9---9--(9)--9--9--9---|

 

 

H E E E E +E Q E +E E E S S

| | | | | | | | | | | | |

/ / / / / / / / / / / / /

 

Q E E E E E E +E Q E +E E E E

|-----10-------------10-|-(10)-----10-(10)-----------|

|-----10-------------10-|-(10)-10--10-(10)-10--------|

|-11--11-11-11-11-11-11-|-(11)-11--11-(11)-11-11-x---|

|-12--12-12-12-12-12-12-|-(12)-12--12-(12)-12-12-x---|

|-12-----12-12-12-12----|------12-------------12-x---|

|-10--------10-10-10----|------10-------------10-x---|

 

 

C#

Q Q E E E E +E Q E +E E E S S

| | | | | | | | | | | | | |

/ / / / / / / / / / / / / /

 

Q Q E E E E +E Q E +E E E E

|------9------------9-|--(9)------9--(9)-------------|

|------9------------9-|--(9)------9--(9)-------------|

|-10--10--10-10-10-10-|-(10)-10--10-(10)-10-10-10----|

|-11--11--11-11-11-11-|-(11)-11--11-(11)-11-11-11----|

|-11------11-11-11----|------11----------11-11-11----|

|--9-------9--9--9----|-------9-----------9--9--9----|

 

 

D C#

Q Q E E E E +E Q E +E E E S S

| | | | | | | | | | | | | |

/ / / / / / / / / / / / / /

 

Q Q E E E E +E Q E +Q. S S

|-----10-----------10-|-(10)---------------------|

|-----10-----------10-|-(10)---------------------|

|-11--11--11-11-11-11-|-(11)-11--11-(11)-----x-x-|

|-12--12--12-12-12-12-|-(12)-12--12-(12)-----x-x-|

|-12------12-12-12----|------12--12-(12)-----x-x-|

|-10------10-10-10----|------10--10-(10)-----x-x-|

 

 

C

Q Q E E E E +E Q E +E E E E

| | | | | | | | | | | | |

/ / / / / / / / / / / / /

 

Q Q E E E E +E Q E +E S S E E

|------9------------9-|--(9)------9--(9)--------9-----||

|------9------------9-|--(9)------9--(9)--------9-----||

|-10--10--10-10-10-10-|-(10)-10--10-(10)-10-10-10--9--||

|-11--11--11-11-11-11-|-(11)-11--11-(11)-11-11-11-10--||

|-11------11-11-11----|------11----------11-11----10--||

|--9-------9--9--9----|-------9-----------9--9-----8--||

 

 

Interlude

Gtrs III, IV

PM--------------------------------|

E E E E E E E E E E E E E E E E

|-------------------------|-------------------------|

|-------------------------|-------------------------|

|-------------------------|--------------9--9--9--9-|

|-------------------------|-------10-10-10-10-10-10-|

|-10-10-10-10-10-10-10-10-|-10-10-10-10-10-10-10-10-|

|--8--8--8--8--8--8--8--8-|--8--8--8--8--8--8--8--8-|

 

 

E E E E E E E E E E E E S S S S S S E

|-------------------------|--------------8--8--8--8--8--8--8-||

|--8--8--8--8--8--8--8--8-|--8--8--8--8--8--8--8--8--8--8--8-||

|--9--9--9--9--9--9--9--9-|--9--9--9--9--9--9--9--9--9--9--9-||

|-10-10-10-10-10-10-10-10-|-10-10-10-10-10-10-10-10-10-10-10-||

|-10-10-10-10-10-10-10-10-|-10-10-10-10-10-10-10-10-10-10-10-||

|--8--8--8--8--8--8--8--8-|--8--8--8--8--8--8--8--8--8--8--8-||

 

 

Out-Chorus

C# F#sus2 C# Eb G#sus2 Eb D

Gtr III

E E E E +E E E S S E E E E +E E E S S

|------------------------------|------------------------------|

|------------------------------|------------------------------|

|-10-10-10-11-(11)-10-10-12-12-|-12-12-12-13-(13)-12-12-11-11-|

|-11-11-11-11-(11)-11-11-13-13-|-13-13-13-13-(13)-13-13-12-12-|

|-11-11-11--9--(9)-11-11-13-13-|-13-13-13-11-(11)-13-13-12-12-|

|--9--9--9----------9--9-11-11-|-11-11-11-11-(11)-11-11-10-10-|

|

| Gtr IV

| E E E E +E E E S S E E E E +E E E S S

|-----------9--(9)-------------|----------11-(11)-------------|

|-----------9--(9)-------------|----------11-(11)-------------|

|-10-10-10-11-(11)-10-10-12-12-|-12-12-12-13-(13)-12-12-11-11-|

|-11-11-11-11-(11)-11-11-13-13-|-13-13-13-13-(13)-13-13-12-12-|

|-11-11-11--9--(9)-11-11-13-13-|-13-13-13-11-(11)-13-13-12-12-|

|--9--9--9----------9--9-11-11-|-11-11-11---------11-11-10-10-|

 

 

~~~~~~~~~~

Q E E +E E E E E +E E E +Q +Q

|-------------------(9)\---|--------------------------------------------|

|------------------------0-|------------14-12b14-(12)-------(12)pb14r===|

|-11--11-11-(11)-11--------|-11b12r(11)---------------------------------|

|-12--12-12-(12)-12--------|--------------------------------------------|

|-12--12-12-(12)-12--------|--------------------------------------------|

|-10--10-10-(10)-10--------|--------------------------------------------|

|

| Q E E +E E Q E Q E S S E E E

|--------10-(10)----10-----|--------10----------------------------------|

|--------10-(10)----10-----|--------10----------------------------------|

|-11--11-11-(11)-11-11-----|-11-----11-----11-----11--11-11--11------11-|

|-12--12---------12--------|-12------------12-----12--12-12--12------12-|

|-12--12---------12--------|-12------------12-----12--12-12--12------12-|

|-10--10---------10--------|-10-------------------10--10-10--10------10-|

 

 

C# F#sus2 C# Eb F#sus2 Eb D

E E E E +E E E S S E E E E +E E E S S

|------------------------------|------------------------------|

|------------------------------|------------------------------|

|-10-10-10-11-(11)-10-10-12-12-|-12-12-12-13-(13)-12-12-11-11-|

|-11-11-11-11-(11)-11-11-13-13-|-13-13-13-13-(13)-13-13-12-12-|

|-11-11-11--9--(9)-11-11-13-13-|-13-13-13-11-(11)-13-13-12-12-|

|--9--9--9----------9--9-11-11-|-11-11-11-11-(11)-11-11-10-10-|

|

| E E E E +E E E S S E E E E +E E E S S

|-----------9--(9)-------------|----------11-(11)-------------|

|-----------9--(9)-------------|----------11-(11)-------------|

|-10-10-10-11-(11)-10-10-12-12-|-12-12-12-13-(13)-12-12-11-11-|

|-11-11-11-11-(11)-11-11-13-13-|-13-13-13-13-(13)-13-13-12-12-|

|-11-11-11--9--(9)-11-11-13-13-|-13-13-13-11-(11)-13-13-12-12-|

|--9--9--9----------9--9-11-11-|-11-11-11---------11-11-10-10-|

 

 

~~~~~~~~

Q E E +E E E E Q E +E +Q. E

|---------------------------|------------------------------------|

|-------------------------0-|-12b14r=============================|

|-11--11-11-(11)-11-/(7)----|----------11b12r(11)-(11)--------x--|

|-12--12-12-(12)-12---------|------------------------------------|

|-12--12-12-(12)-12---------|------------------------------------|

|-10--10-10-(10)-10---------|------------------------------------|

|

| Q E E E E E E E E E E E E E E

|---------------------------|-----------------10----------10-10--|

|---------------------------|-----------------10----------10-10--|

|-11--11-11--11--11--11--11-|-11----11-11-----11---11--11-11-11--|

|-12--12-12--12--12--12--12-|-12----12-12-----12---12--12-12-12--|

|-12--12-12--12--12--12--12-|-12----12-12-----12---12--12-12-12--|

|-10--10-----10--10------10-|-10----10-10-----10---10--10-10-10--|

 

 

C# F#sus2 Eb G#sus2 Eb D

E E E E +E E E S S E E E E +E E E S S

|------------------------------|------------------------------|

|------------------------------|------------------------------|

|-10-10-10-11-(11)-10-10-12-12-|-12-12-12-13-(13)-12-12-11-11-|

|-11-11-11-11-(11)-11-11-13-13-|-13-13-13-13-(13)-13-13-12-12-|

|-11-11-11--9--(9)-11-11-13-13-|-13-13-13-11-(11)-13-13-12-12-|

|--9--9--9----------9--9-11-11-|-11-11-11-11-(11)-11-11-10-10-|

|

| E E E E +E E E S S E E E E +E E E S S

|-----------9--(9)-------------|----------11-(11)-------------|

|-----------9--(9)-------------|----------11-(11)-------------|

|-10-10-10-11-(11)-10-10-12-12-|-12-12-12-13-(13)-12-12-11-11-|

|-11-11-11-11-(11)-11-11-13-13-|-13-13-13-13-(13)-13-13-12-12-|

|-11-11-11--9--(9)-11-11-13-13-|-13-13-13-11-(11)-13-13-12-12-|

|--9--9--9----------9--9-11-11-|-11-11-11---------11-11-10-10-|

 

 

Q E E +E E E E E E E E E E S T S S.

|--------------------------|------------------------------|

|-------------------/(9)-0-|--9-12-9-12--9-12--9-x-9------|

|-11--11-11-(11)-11--------|-------------------------11---|

|-12--12-12-(12)-12--------|------------------------------|

|-12--12-12-(12)-12--------|------------------------------|

|-10--10-10-(10)-10--------|------------------------------|

|

| Q E E +E E Q E Q E E E Q

|--------10-(10)-----10----|----10------10----10----------|

|--------10-(10)-----10----|----10------10----10----------|

|-11--11-11-(11)-11--11----|-11-11---11-11-11-11----------|

|-12--12-12-(12)-12--12----|-12-12---12-12-12-12----------|

|-12--12-12-(12)-12--12----|-12-12---12-12-12-12----------|

|-10--10-10-(10)-10--10----|-10-10---10-10-10-10----------|

 

 

C# F#sus2 C# Eb G#sus2 Eb D

E E E E +E E E S S E E E E +E E E S S

|------------------------------|------------------------------|

|------------------------------|------------------------------|

|-10-10-10-11-(11)-10-10-12-12-|-12-12-12-13-(13)-12-12-11-11-|

|-11-11-11-11-(11)-11-11-13-13-|-13-13-13-13-(13)-13-13-12-12-|

|-11-11-11--9--(9)-11-11-13-13-|-13-13-13-11-(11)-13-13-12-12-|

|--9--9--9----------9--9-11-11-|-11-11-11-11-(11)-11-11-10-10-|

|

| E E E E +E E E S S E E E E +E E E S S

|-----------9--(9)-------------|----------11-(11)-------------|

|-----------9--(9)-------------|----------11-(11)-------------|

|-10-10-10-11-(11)-10-10-12-12-|-12-12-12-13-(13)-12-12-11-11-|

|-11-11-11-11-(11)-11-11-13-13-|-13-13-13-13-(13)-13-13-12-12-|

|-11-11-11--9--(9)-11-11-13-13-|-13-13-13-11-(11)-13-13-12-12-|

|--9--9--9----------9--9-11-11-|-11-11-11---------11-11-10-10-|

 

 

~~~~~~~

Q E E +E E E E E E E E +Q. E

|--------------------------|-------12------------------||

|--------------------------|-12-14----14-(14)----------||

|-11--11-11-(11)-11-11-----|---------------------------||

|-12--12-12-(12)-12-12-----|---------------------------||

|-12--12-12-(12)-12-12-/15-|---------------------------||

|-10--10-10-(10)-10-10-----|---------------------------||

|

| Q E E +E E Q E Q E E E Q

|--------10-(10)----10-----|----10--------10-----10----||

|--------10-(10)----10-----|----10--------10-----10----||

|-11--11-11-(11)-11-11-----|-11-11----11--11--11-11----||

|-12--12-12-(12)-12-12-----|-12-12----12--12--12-12----||

|-12--12-12-(12)-12-12-----|-12-12----12--12--12-12----||

|-10--10-10-(10)-10-10-----|-10-10----10--10--10-10----||

 

 

Outro

C# F#sus2 C# Eb F#sus2 Eb D

Gtrs III, IV

E E E E +E E E S S E E E E +E E E S S

||---9--9--9--9--(9)--9--9-11-11-|-11-11-11-11-(11)-11-11-10-10-|

||o--9--9--9--9--(9)--9--9-11-11-|-11-11-11-11-(11)-11-11-10-10-|

||--10-10-10-11-(11)-10-10-12-12-|-12-12-12-13-(13)-12-12-11-11-|

||--11-11-11-11-(11)-11-11-13-13-|-13-13-13-13-(13)-13-13-12-12-|

||o-11-11-11--9--(9)-11-11-13-13-|-13-13-13-11-(11)-13-13-12-12-|

||---9--9--9----------9--9-11-11-|-11-11-11-11-(11)-11-11-10-10-|

 

 

Q E E +E E Q E Q E E E S S E 3x

|-10--10-10-(10)-10-10--|-10-10--10-10-10-10-10-10---||

|-10--10-10-(10)-10-10--|-10-10--10-10-10-10-10-10--o||

|-11--11-11-(11)-11-11--|-11-11--11-11-11-11-11-11---||

|-12--12-12-(12)-12-12--|-12-12--12-12-12-12-12-12---||

|-12--12-12-(12)-12-12--|-12-12--12-12-12-12-12-12--o||

|-10--10-10-(10)-10-10--|-10-10--10-10-10-10-10-10---||

 

 

C# F#sus2 C# Eb G#sus2 Eb

E E E E +E E E S S E E E E +E E E S S

|--9--9--9--9--(9)--9--9-11-11-|-11-11-11-11-(11)-11-11-10-10-|

|--9--9--9--9--(9)--9--9-11-11-|-11-11-11-11-(11)-11-11-10-10-|

|-10-10-10-11-(11)-10-10-12-12-|-12-12-12-13-(13)-12-12-11-11-|

|-11-11-11-11-(11)-11-11-13-13-|-13-13-13-13-(13)-13-13-12-12-|

|-11-11-11--9--(9)-11-11-13-13-|-13-13-13-11-(11)-13-13-12-12-|

|--9--9--9----------9--9-11-11-|-11-11-11-11-(11)-11-11-10-10-|

 

 

D C#

Q Q Q Q 4x H. Q

||--10-----10------||--9\----------*|

||o-10-----10-----o||--9\----------*|

||--11-----11------||-10\----------*|

||--12-----12------||-11\----------*|

||o-12-----12-----o||-11\----------*|

||--10-----10------||--9\----------*|

 

 

Duration Legend

---------------

W - whole; H - half; Q - quarter; E - 8th; S - 16th; T - 32nd; X - 64th; a - acciaccatura

+ - note tied to previous; . - note dotted; .. - note double dotted

Uncapitalized letters represent notes that are staccato (1/2 duration)

Irregular groupings are notated above the duration line

Duration letters will always appear directly above the note/fret number it represents the

duration for. Duration letters with no fret number below them represent rests. Multi-

bar rests are notated in the form Wxn, where n is the number of bars to rest for. Low

melody durations appear below the staff

 

Tablature Legend

----------------

h - hammer-on

p - pull-off

b - bend

pb - pre-bend

r - bend release (if no number after the r, then release immediately)

/\ - slide into or out of (from/to "nowhere")

s - legato slide

S - shift slide

- natural harmonic

[n] - artificial harmonic

n(n) - tapped harmonic

~ - vibrato

tr - trill

T - tap

TP - trem. picking

PM - palm muting

\n/ - tremolo bar dip; n = amount to dip

\n - tremolo bar down

n/ - tremolo bar up

/n\ - tremolo bar inverted dip

= - hold bend; also acts as connecting device for hammers/pulls

<> - volume swell (louder/softer)

x - on rhythm slash represents muted slash

o - on rhythm slash represents single note slash

 

Misc Legend

-----------

| - bar

|| - double bar

||o - repeat start

o|| - repeat end

*| - double bar (ending)

: - bar (freetime)

$ - Segno

& - Coda

Tempo markers - = BPM(8/16=s8/s16), where s8 = swing 8ths, s16 = swing 16ths

Return to my QOTSA tabs page

The Tablature is Copyright its respective owners.

Sign Up For My Newsletter
Subscribe | Unsubscribe

Site Map | Disclaimer | Privacy Policy | Media Kit | Submissions/Corrections

Website © 2000-2014 mattsmusicpage.com. All rights reserved.

Legal & DMCA: Matt's Music Page has been providing lyrics and tabs in a legal way, paying royalties each year to a few organizations. Then, all lyrics and tabs were removed from the site. Now, there's a new owner to the site, which purchased it August 26, 2014, and he is in negotiation to obtain licensing from BMI at the moment. If you have a specific DMCA request -- please do not hesitate to contact me via the contact button on top. I will do my very best to keep this site fully legal.

Get our toolbar!

 

BRAND NEW KEY OF C HOHNER MINI HARMONICA HARP KEYRING KEYCHAIN KEY RING CHAIN
$8.21
BRAND NEW KEY OF C HOHNER MINI HARMONICA HARP KEYRING KEYCHAIN KEY RING CHAIN picture


RISING SONS BAND *2X3 FRIDGE MAGNET* VOCALS GUITAR MANDOLIN DOBRO HARMONICA SONG
$3.99
RISING SONS BAND *2X3 FRIDGE MAGNET* VOCALS GUITAR MANDOLIN DOBRO HARMONICA SONG picture


Vtg Christmas Angel Baby Girl W Harmonica Boy W Book SET OF 2 W GOLD WINGS
$125.0
Vtg Christmas Angel Baby Girl W Harmonica Boy W Book SET OF 2 W GOLD WINGS  picture


Beautiful Hand Carved Jewelry Trinket Jewelry Box Harmonica Case Bone And Brass
$14.5
Beautiful Hand Carved Jewelry Trinket Jewelry Box Harmonica Case Bone And Brass picture


BRAND NEW* HOHNER BOB DYLAN SIGNATURE LIMITED EDITION HARMONICA COLLECTORS ITEM
$140.19
BRAND NEW* HOHNER BOB DYLAN SIGNATURE LIMITED EDITION HARMONICA COLLECTORS ITEM picture